  0
SECTION
  2
HEADER
  9
$ACADVER
  1
AC1015
  9
$HANDSEED
  5
C351
  9
$EXTMIN
 10
-329.25
 20
-426.30
  9
$EXTMAX
 10
1233.00
 20
505.65
  9
$MEASUREMENT
 70
1
  0
ENDSEC
  0
SECTION
  2
TABLES
  0
TABLE
  2
VPORT
  5
  1
100
AcDbSymbolTable
  0
ENDTAB
  0
TABLE
  2
LTYPE
  5
  2
100
AcDbSymbolTable
  0
LTYPE
  5
  3
100
AcDbSymbolTableRecord
100
AcDbLinetypeTableRecord
  2
BYBLOCK
 70
     0
  0
LTYPE
  5
  4
100
AcDbSymbolTableRecord
100
AcDbLinetypeTableRecord
  2
BYLAYER
 70
     0
  0
ENDTAB
  0
TABLE
  2
LAYER
  5
 1A
330
  0
100
AcDbSymbolTable
  0
LAYER
  5
21
330
 1A
100
AcDbSymbolTableRecord
100
AcDbLayerTableRecord
  2
0
 70
0
 62
7
  6
Continuous
370
-3
390
 19
  0
ENDTAB
  0
TABLE
  2
STYLE
  5
  5
100
AcDbSymbolTable
  0
STYLE
  5
  6
100
AcDbSymbolTableRecord
100
AcDbTextStyleTableRecord
  2
STANDARD
 70
     0
 40
0.0
 41
1.0
 50
0.0
 71
     0
 42
10.0
  3
txt
  4

  0
ENDTAB
  0
TABLE
  2
VIEW
  5
  7
100
AcDbSymbolTable
  0
ENDTAB
  0
TABLE
  2
UCS
  5
  8
100
AcDbSymbolTable
  0
ENDTAB
  0
TABLE
  2
APPID
  5
  9
100
AcDbSymbolTable
  0
APPID
  5
  A
100
AcDbSymbolTableRecord
100
AcDbRegAppTableRecord
  2
ACAD
 70
0
  0
ENDTAB
  0
TABLE
  2
DIMSTYLE
  5
  B
100
AcDbSymbolTable
 70
     1
100
AcDbDimStyleTable
 71
     0
  0
DIMSTYLE
105
 1B
330
B
100
AcDbSymbolTableRecord
100
AcDbDimStyleTableRecord
  2
STANDARD
 70
    0
340
  6
  0
ENDTAB
  0
TABLE
  2
BLOCK_RECORD
  5
  C
100
AcDbSymbolTable
  0
BLOCK_RECORD
  5
  D
100
AcDbSymbolTableRecord
100
AcDbBlockTableRecord
  2
*MODEL_SPACE
  0
BLOCK_RECORD
  5
  E
100
AcDbSymbolTableRecord
100
AcDbBlockTableRecord
  2
*PAPER_SPACE
  0
ENDTAB
  0
ENDSEC
  0
SECTION
  2
BLOCKS
  0
BLOCK
  5
  F
330
  D
100
AcDbEntity
  8
0
100
AcDbBlockBegin
  2
*MODEL_SPACE
 70
     0
  0
ENDBLK
  5
 10
100
AcDbEntity
  8
0
100
AcDbBlockEnd
  0
BLOCK
  5
 11
330
  E
100
AcDbEntity
  8
0
100
AcDbBlockBegin
  2
*PAPER_SPACE
 70
     0
  0
ENDBLK
  5
 12
100
AcDbEntity
  8
0
100
AcDbBlockEnd
  0
ENDSEC
  0
SECTION
  2
ENTITIES
  0
POINT
 5
C8
100
AcDbEntity
  8
207000
100
AcDbPoint
 10
20.10
 20
22.35
 50
0.0
  0
POINT
 5
C9
100
AcDbEntity
  8
207000
100
AcDbPoint
 10
121.80
 20
135.60
 50
0.0
  0
POINT
 5
CA
100
AcDbEntity
  8
537000
100
AcDbPoint
 10
152.10
 20
-76.05
 50
0.0
  0
POINT
 5
CB
100
AcDbEntity
  8
537000
100
AcDbPoint
 10
102.00
 20
76.20
 50
0.0
  0
POINT
 5
CC
100
AcDbEntity
  8
312000
100
AcDbPoint
 10
169.20
 20
97.20
 50
0.0
  0
POINT
 5
CD
100
AcDbEntity
  8
312000
100
AcDbPoint
 10
24.00
 20
122.40
 50
0.0
  0
LWPOLYLINE
 5
CE
100
AcDbEntity
  8
306000
100
AcDbPolyline
 90
    39
 70
 0
 43
0.0
 10
16.20
 20
84.00
 10
21.00
 20
84.60
 10
22.95
 20
84.30
 10
39.30
 20
85.50
 10
40.50
 20
86.70
 10
41.85
 20
87.30
 10
44.70
 20
89.70
 10
45.90
 20
91.20
 10
48.90
 20
100.50
 10
51.30
 20
108.90
 10
53.70
 20
114.45
 10
54.30
 20
116.10
 10
55.95
 20
116.70
 10
59.10
 20
117.30
 10
61.05
 20
116.70
 10
62.85
 20
115.50
 10
65.70
 20
112.50
 10
68.10
 20
109.50
 10
69.75
 20
108.30
 10
74.70
 20
107.70
 10
78.90
 20
107.70
 10
89.10
 20
107.10
 10
96.30
 20
108.30
 10
108.30
 20
111.90
 10
118.50
 20
111.30
 10
122.70
 20
110.10
 10
123.90
 20
108.60
 10
125.70
 20
103.50
 10
127.50
 20
102.30
 10
129.75
 20
101.10
 10
133.50
 20
99.90
 10
135.75
 20
99.90
 10
143.10
 20
101.70
 10
144.30
 20
103.35
 10
146.10
 20
106.80
 10
147.30
 20
111.90
 10
147.90
 20
114.30
 10
150.30
 20
126.90
 10
152.40
 20
129.00
  0
LWPOLYLINE
 5
CF
100
AcDbEntity
  8
306000
100
AcDbPolyline
 90
    2
 70
 0
 43
0.0
 10
16.20
 20
84.00
 10
-105.00
 20
49.80
  0
LWPOLYLINE
 5
D0
100
AcDbEntity
  8
306000
100
AcDbPolyline
 90
    12
 70
 0
 43
0.0
 10
-105.00
 20
49.80
 10
-113.10
 20
45.30
 10
-114.90
 20
48.90
 10
-116.55
 20
49.50
 10
-131.40
 20
45.90
 10
-133.50
 20
44.70
 10
-133.50
 20
43.05
 10
-132.30
 20
39.30
 10
-133.95
 20
38.10
 10
-135.90
 20
37.50
 10
-140.40
 20
37.20
 10
-180.60
 20
26.40
  0
LWPOLYLINE
 5
D1
100
AcDbEntity
  8
507000
100
AcDbPolyline
 90
    33
 70
 0
 43
0.0
 10
28.95
 20
125.40
 10
37.35
 20
133.20
 10
45.30
 20
140.10
 10
47.10
 20
141.30
 10
49.20
 20
141.30
 10
55.50
 20
139.50
 10
65.55
 20
137.10
 10
68.40
 20
137.10
 10
71.10
 20
137.70
 10
73.65
 20
138.90
 10
76.80
 20
141.90
 10
79.50
 20
143.70
 10
81.60
 20
147.30
 10
83.40
 20
148.50
 10
87.45
 20
150.90
 10
89.85
 20
151.50
 10
96.30
 20
148.50
 10
98.70
 20
147.90
 10
101.10
 20
147.90
 10
107.40
 20
148.50
 10
109.95
 20
149.70
 10
112.05
 20
150.90
 10
114.30
 20
151.50
 10
122.10
 20
152.70
 10
130.20
 20
150.90
 10
136.80
 20
149.70
 10
138.90
 20
148.50
 10
151.35
 20
140.70
 10
153.75
 20
140.10
 10
155.85
 20
140.10
 10
157.65
 20
143.10
 10
158.40
 20
145.35
 10
158.70
 20
147.60
  0
SPLINE
 5
D2
100
AcDbEntity
  8
507000
100
AcDbSpline
210
0.0
220
0.0
230
1.0
 70
     8
 71
     3
 72
    8
 73
    4
 74
     0
 42
0.00000001
 43
0.00000001
 40
0.0
 40
0.0
 40
0.0
 40
0.0
 40
1.0
 40
1.0
 40
1.0
 40
1.0
 10
158.70
 20
147.60
 10
170.85
 20
150.30
 10
179.10
 20
148.20
 10
189.00
 20
156.00
  0
LWPOLYLINE
 5
D3
100
AcDbEntity
  8
406000
100
AcDbPolyline
 90
    22
 70
 1
 43
0.0
 10
45.60
 20
137.40
 10
40.20
 20
123.60
 10
39.30
 20
121.80
 10
40.50
 20
120.00
 10
42.00
 20
118.50
 10
43.95
 20
117.90
 10
49.50
 20
116.70
 10
50.70
 20
119.70
 10
52.20
 20
120.30
 10
54.15
 20
119.70
 10
59.10
 20
117.30
 10
61.50
 20
117.30
 10
63.30
 20
118.50
 10
63.90
 20
120.15
 10
65.10
 20
125.10
 10
67.50
 20
129.30
 10
68.85
 20
130.50
 10
69.90
 20
131.85
 10
68.25
 20
132.90
 10
58.95
 20
135.30
 10
51.30
 20
137.10
 10
48.60
 20
137.40
  0
LWPOLYLINE
 5
D4
100
AcDbEntity
  8
307000
100
AcDbPolyline
 90
    2
 70
 0
 43
0.0
 10
-106.20
 20
143.40
 10
-51.60
 20
64.80
  0
LWPOLYLINE
 5
D5
100
AcDbEntity
  8
307000
100
AcDbPolyline
 90
    2
 70
 0
 43
0.0
 10
-106.20
 20
143.40
 10
-135.00
 20
136.80
  0
LWPOLYLINE
 5
D6
100
AcDbEntity
  8
516000
100
AcDbPolyline
 90
    6
 70
 0
 43
0.0
 10
-255.60
 20
76.20
 10
-184.80
 20
63.60
 10
-114.00
 20
37.20
 10
-31.20
 20
13.20
 10
46.80
 20
-6.00
 10
189.60
 20
-6.00
  0
LWPOLYLINE
 5
D7
100
AcDbEntity
  8
526000
100
AcDbPolyline
 90
    5
 70
 1
 43
0.0
 10
-78.30
 20
127.35
 10
-32.70
 20
111.60
 10
-22.20
 20
142.50
 10
-67.80
 20
158.10
 10
-78.30
 20
127.35
  0
LWPOLYLINE
 5
D8
100
AcDbEntity
  8
530000
100
AcDbPolyline
 90
    5
 70
 0
 43
0.0
 10
27.60
 20
-36.30
 10
42.00
 20
-70.05
 10
72.45
 20
-56.40
 10
57.90
 20
-22.80
 10
27.60
 20
-36.30
  0
LWPOLYLINE
 5
D9
100
AcDbEntity
  8
526000
100
AcDbPolyline
 90
    10
 70
 1
 43
0.0
 10
-166.80
 20
-73.20
 10
-151.20
 20
-94.20
 10
-135.30
 20
-82.35
 10
-126.15
 20
-94.80
 10
-114.30
 20
-85.95
 10
-130.20
 20
-64.80
 10
-147.75
 20
-77.85
 10
-157.95
 20
-64.35
 10
-157.05
 20
-66.00
 10
-166.80
 20
-73.20
  0
SPLINE
 5
DA
100
AcDbEntity
  8
101000
100
AcDbSpline
210
0.0
220
0.0
230
1.0
 70
     8
 71
     3
 72
    17
 73
    13
 74
     0
 42
0.00000001
 43
0.00000001
 40
0.0
 40
0.0
 40
0.0
 40
0.0
 40
1.0
 40
1.0
 40
1.0
 40
2.0
 40
2.0
 40
2.0
 40
3.0
 40
3.0
 40
3.0
 40
4.0
 40
4.0
 40
4.0
 40
4.0
 10
-48.15
 20
-4.95
 10
-42.75
 20
-18.60
 10
-18.15
 20
-21.90
 10
6.60
 20
-12.45
 10
31.20
 20
-2.85
 10
47.10
 20
16.20
 10
41.85
 20
29.85
 10
36.60
 20
43.50
 10
26.40
 20
67.80
 10
-12.60
 20
37.35
 10
-33.45
 20
20.70
 10
-53.40
 20
8.70
 10
-48.15
 20
-4.95
  0
SPLINE
 5
DB
100
AcDbEntity
  8
101000
100
AcDbSpline
210
0.0
220
0.0
230
1.0
 70
     8
 71
     3
 72
    17
 73
    13
 74
     0
 42
0.00000001
 43
0.00000001
 40
0.0
 40
0.0
 40
0.0
 40
0.0
 40
1.0
 40
1.0
 40
1.0
 40
2.0
 40
2.0
 40
2.0
 40
3.0
 40
3.0
 40
3.0
 40
4.0
 40
4.0
 40
4.0
 40
4.0
 10
58.20
 20
106.80
 10
54.90
 20
107.40
 10
54.45
 20
99.45
 10
49.80
 20
92.40
 10
42.00
 20
81.60
 10
50.10
 20
76.65
 10
53.40
 20
76.20
 10
56.40
 20
75.60
 10
60.15
 20
82.20
 10
61.50
 20
90.45
 10
62.85
 20
99.00
 10
61.20
 20
106.35
 10
58.20
 20
106.80
  0
SPLINE
 5
DC
100
AcDbEntity
  8
101000
100
AcDbSpline
210
0.0
220
0.0
230
1.0
 70
     8
 71
     3
 72
    29
 73
    25
 74
     0
 42
0.00000001
 43
0.00000001
 40
0.0
 40
0.0
 40
0.0
 40
0.0
 40
1.0
 40
1.0
 40
1.0
 40
2.0
 40
2.0
 40
2.0
 40
3.0
 40
3.0
 40
3.0
 40
4.0
 40
4.0
 40
4.0
 40
5.0
 40
5.0
 40
5.0
 40
6.0
 40
6.0
 40
6.0
 40
7.0
 40
7.0
 40
7.0
 40
8.0
 40
8.0
 40
8.0
 40
8.0
 10
102.00
 20
12.60
 10
114.00
 20
21.60
 10
117.00
 20
37.20
 10
132.00
 20
35.40
 10
147.75
 20
33.45
 10
159.30
 20
20.25
 10
171.60
 20
30.60
 10
186.00
 20
42.60
 10
206.70
 20
41.85
 10
207.60
 20
60.60
 10
208.20
 20
76.35
 10
196.20
 20
91.20
 10
209.40
 20
100.20
 10
226.05
 20
111.45
 10
246.60
 20
128.55
 10
253.80
 20
147.60
 10
259.05
 20
154.35
 10
264.45
 20
156.75
 10
267.00
 20
165.60
 10
271.20
 20
180.60
 10
269.40
 20
189.90
 10
277.80
 20
203.40
 10
291.15
 20
225.00
 10
298.05
 20
235.80
 10
310.80
 20
258.00
  0
SPLINE
 5
DD
100
AcDbEntity
  8
101000
100
AcDbSpline
210
0.0
220
0.0
230
1.0
 70
     8
 71
     3
 72
    35
 73
    31
 74
     0
 42
0.00000001
 43
0.00000001
 40
0.0
 40
0.0
 40
0.0
 40
0.0
 40
1.0
 40
1.0
 40
1.0
 40
2.0
 40
2.0
 40
2.0
 40
3.0
 40
3.0
 40
3.0
 40
4.0
 40
4.0
 40
4.0
 40
5.0
 40
5.0
 40
5.0
 40
6.0
 40
6.0
 40
6.0
 40
7.0
 40
7.0
 40
7.0
 40
8.0
 40
8.0
 40
8.0
 40
9.0
 40
9.0
 40
9.0
 40
10.0
 40
10.0
 40
10.0
 40
10.0
 10
39.00
 20
-112.20
 10
55.80
 20
-105.00
 10
69.00
 20
-108.15
 10
81.00
 20
-94.20
 10
100.80
 20
-71.25
 10
100.65
 20
-41.40
 10
130.80
 20
-36.60
 10
153.75
 20
-33.00
 10
170.70
 20
-42.90
 10
188.40
 20
-27.60
 10
206.55
 20
-12.00
 10
227.40
 20
-12.15
 10
234.60
 20
10.80
 10
240.30
 20
29.25
 10
241.50
 20
40.20
 10
253.80
 20
55.20
 10
265.95
 20
70.05
 10
274.50
 20
75.75
 10
284.40
 20
92.40
 10
292.95
 20
107.25
 10
295.65
 20
115.80
 10
306.00
 20
129.60
 10
314.55
 20
145.35
 10
313.95
 20
158.10
 10
328.80
 20
168.60
 10
343.20
 20
178.80
 10
352.65
 20
181.35
 10
364.80
 20
194.40
 10
384.00
 20
214.95
 10
399.15
 20
221.25
 10
412.80
 20
246.00
  0
SPLINE
 5
DE
100
AcDbEntity
  8
103000
100
AcDbSpline
210
0.0
220
0.0
230
1.0
 70
     8
 71
     3
 72
    17
 73
    13
 74
     0
 42
0.00000001
 43
0.00000001
 40
0.0
 40
0.0
 40
0.0
 40
0.0
 40
1.0
 40
1.0
 40
1.0
 40
2.0
 40
2.0
 40
2.0
 40
3.0
 40
3.0
 40
3.0
 40
4.0
 40
4.0
 40
4.0
 40
4.0
 10
108.00
 20
48.60
 10
99.60
 20
42.60
 10
145.20
 20
72.30
 10
149.40
 20
68.40
 10
154.65
 20
63.30
 10
160.80
 20
48.60
 10
162.60
 20
55.80
 10
164.70
 20
64.65
 10
159.30
 20
74.85
 10
168.00
 20
78.00
 10
187.20
 20
84.60
 10
193.05
 20
91.65
 10
195.60
 20
99.00
  0
LWPOLYLINE
 5
DF
100
AcDbEntity
  8
416000
100
AcDbPolyline
 90
    3
 70
 0
 43
0.0
 10
27.00
 20
154.80
 10
19.20
 20
250.80
 10
88.80
 20
261.00
  0
LWPOLYLINE
 5
E0
100
AcDbEntity
  8
404000
100
AcDbPolyline
 90
    11
 70
 1
 43
0.0
 10
38.25
 20
176.10
 10
90.60
 20
203.40
 10
93.30
 20
213.30
 10
95.10
 20
217.80
 10
98.10
 20
228.30
 10
99.30
 20
231.90
 10
99.60
 20
230.70
 10
99.15
 20
232.35
 10
88.80
 20
261.00
 10
88.80
 20
261.00
 10
38.25
 20
176.10
  0
LWPOLYLINE
 5
E1
100
AcDbEntity
  8
404000
100
AcDbPolyline
 90
    37
 70
 1
 43
0.0
 10
38.25
 20
176.10
 10
90.60
 20
203.40
 10
93.30
 20
213.30
 10
95.10
 20
217.80
 10
98.10
 20
228.30
 10
99.30
 20
231.90
 10
99.60
 20
230.70
 10
99.15
 20
232.35
 10
128.85
 20
151.05
 10
128.85
 20
151.05
 10
122.10
 20
152.70
 10
114.30
 20
151.50
 10
112.05
 20
150.90
 10
109.95
 20
149.70
 10
107.40
 20
148.50
 10
101.10
 20
147.90
 10
98.70
 20
147.90
 10
96.30
 20
148.50
 10
89.85
 20
151.50
 10
87.45
 20
150.90
 10
83.40
 20
148.50
 10
81.60
 20
147.30
 10
79.50
 20
143.70
 10
76.80
 20
141.90
 10
73.65
 20
138.90
 10
71.10
 20
137.70
 10
68.40
 20
137.10
 10
65.55
 20
137.10
 10
55.50
 20
139.50
 10
49.20
 20
141.30
 10
47.10
 20
141.30
 10
45.30
 20
140.10
 10
41.25
 20
136.65
 10
40.65
 20
136.05
 10
48.00
 20
138.00
 10
25.20
 20
154.20
 10
38.25
 20
176.10
  0
LWPOLYLINE
 5
E2
100
AcDbEntity
  8
404000
100
AcDbPolyline
 90
    5
 70
 1
 43
0.0
 10
62.40
 20
213.00
 10
63.30
 20
211.50
 10
65.85
 20
209.70
 10
68.10
 20
209.10
 10
70.20
 20
208.20
  0
LWPOLYLINE
 5
E3
100
AcDbEntity
  8
406000
100
AcDbPolyline
 90
    7
 70
 1
 43
0.0
 10
21.60
 20
247.80
 10
28.20
 20
192.00
 10
53.40
 20
202.80
 10
82.80
 20
254.40
 10
82.80
 20
259.20
 10
20.40
 20
252.00
 10
26.40
 20
240.60
  0
SPLINE
 5
E4
100
AcDbEntity
  8
404000
100
AcDbSpline
210
0.0
220
0.0
230
1.0
 70
     8
 71
     3
 72
    20
 73
    16
 74
     0
 42
0.00000001
 43
0.00000001
 40
0.0
 40
0.0
 40
0.0
 40
0.0
 40
1.0
 40
1.0
 40
1.0
 40
2.0
 40
2.0
 40
2.0
 40
3.0
 40
3.0
 40
3.0
 40
4.0
 40
4.0
 40
4.0
 40
5.0
 40
5.0
 40
5.0
 40
5.0
 10
91.80
 20
202.20
 10
88.50
 20
204.00
 10
82.35
 20
199.35
 10
77.85
 20
191.70
 10
73.35
 20
184.20
 10
72.30
 20
176.55
 10
75.60
 20
174.60
 10
78.75
 20
172.80
 10
84.90
 20
177.45
 10
89.25
 20
184.95
 10
93.75
 20
192.60
 10
94.80
 20
200.40
 10
91.80
 20
202.20
 10
91.80
 20
202.20
 10
91.80
 20
202.20
 10
91.80
 20
202.20
  0
SPLINE
 5
E5
100
AcDbEntity
  8
404000
100
AcDbSpline
210
0.0
220
0.0
230
1.0
 70
     8
 71
     3
 72
    20
 73
    16
 74
     0
 42
0.00000001
 43
0.00000001
 40
0.0
 40
0.0
 40
0.0
 40
0.0
 40
1.0
 40
1.0
 40
1.0
 40
2.0
 40
2.0
 40
2.0
 40
3.0
 40
3.0
 40
3.0
 40
4.0
 40
4.0
 40
4.0
 40
5.0
 40
5.0
 40
5.0
 40
5.0
 10
90.60
 20
205.80
 10
87.45
 20
207.00
 10
82.65
 20
202.35
 10
79.80
 20
195.45
 10
77.10
 20
188.55
 10
77.25
 20
181.80
 10
80.40
 20
180.60
 10
83.25
 20
179.40
 10
88.05
 20
184.05
 10
90.90
 20
190.95
 10
93.60
 20
197.85
 10
93.45
 20
204.60
 10
90.60
 20
205.80
 10
90.60
 20
205.80
 10
90.60
 20
205.80
 10
90.60
 20
205.80
  0
SPLINE
 5
E6
100
AcDbEntity
  8
404000
100
AcDbSpline
210
0.0
220
0.0
230
1.0
 70
     8
 71
     3
 72
    20
 73
    16
 74
     0
 42
0.00000001
 43
0.00000001
 40
0.0
 40
0.0
 40
0.0
 40
0.0
 40
1.0
 40
1.0
 40
1.0
 40
2.0
 40
2.0
 40
2.0
 40
3.0
 40
3.0
 40
3.0
 40
4.0
 40
4.0
 40
4.0
 40
5.0
 40
5.0
 40
5.0
 40
5.0
 10
89.40
 20
202.20
 10
89.40
 20
202.20
 10
86.85
 20
197.25
 10
83.70
 20
191.40
 10
80.55
 20
185.55
 10
78.00
 20
180.60
 10
78.00
 20
180.60
 10
78.00
 20
180.60
 10
80.55
 20
185.55
 10
83.70
 20
191.40
 10
86.85
 20
197.25
 10
89.40
 20
202.20
 10
89.40
 20
202.20
 10
89.40
 20
202.20
 10
89.40
 20
202.20
 10
89.40
 20
202.20
  0
POINT
 5
E7
100
AcDbEntity
  8
208001
100
AcDbPoint
 10
242.40
 20
108.00
 50
117.9
  0
POINT
 5
E8
100
AcDbEntity
  8
208001
100
AcDbPoint
 10
251.40
 20
112.80
 50
0.0
  0
POINT
 5
E9
100
AcDbEntity
  8
208001
100
AcDbPoint
 10
258.60
 20
121.20
 50
0.0
  0
POINT
 5
EA
100
AcDbEntity
  8
208001
100
AcDbPoint
 10
262.80
 20
135.00
 50
-83.7
  0
POINT
 5
EB
100
AcDbEntity
  8
208001
100
AcDbPoint
 10
268.20
 20
120.00
 50
0.0
  0
POINT
 5
EC
100
AcDbEntity
  8
208001
100
AcDbPoint
 10
261.00
 20
109.20
 50
0.0
  0
POINT
 5
ED
100
AcDbEntity
  8
208001
100
AcDbPoint
 10
251.40
 20
98.40
 50
0.0
  0
POINT
 5
EE
100
AcDbEntity
  8
208001
100
AcDbPoint
 10
267.60
 20
110.40
 50
0.0
  0
POINT
 5
EF
100
AcDbEntity
  8
208001
100
AcDbPoint
 10
261.00
 20
100.80
 50
0.0
  0
POINT
 5
F0
100
AcDbEntity
  8
208001
100
AcDbPoint
 10
247.20
 20
87.00
 50
117.8
  0
POINT
 5
F1
100
AcDbEntity
  8
208001
100
AcDbPoint
 10
243.00
 20
90.60
 50
21.0
  0
POINT
 5
F2
100
AcDbEntity
  8
208001
100
AcDbPoint
 10
255.60
 20
91.80
 50
-57.1
  0
POINT
 5
F3
100
AcDbEntity
  8
208001
100
AcDbPoint
 10
274.20
 20
102.00
 50
116.6
  0
LWPOLYLINE
 5
F4
100
AcDbEntity
  8
201000
100
AcDbPolyline
 90
    2
 70
 0
 43
0.0
 10
287.25
 20
219.45
 10
274.65
 20
200.85
  0
MTEXT
 5
F5
100
AcDbEntity
  8
0
100
AcDbMText
 10
-52.35
 20
-217.35
 40
15.87
  1
Map
 50
0.0
 71
7
  0
POINT
 5
F6
100
AcDbEntity
  8
116000
100
AcDbPoint
 10
-182.55
 20
113.25
 50
0.0
  0
LWPOLYLINE
 5
F7
100
AcDbEntity
  8
403000
100
AcDbPolyline
 90
    6
 70
 1
 43
0.0
 10
-321.75
 20
224.85
 10
-321.75
 20
160.65
 10
-258.15
 20
157.05
 10
-225.75
 20
236.85
 10
-316.35
 20
239.85
 10
-321.75
 20
224.85
  0
POINT
 5
F8
100
AcDbEntity
  8
419000
100
AcDbPoint
 10
-283.35
 20
202.65
 50
0.0
  0
POINT
 5
F9
100
AcDbEntity
  8
538000
100
AcDbPoint
 10
-259.95
 20
244.65
 50
0.0
  0
SPLINE
 5
FA
100
AcDbEntity
  8
106000
100
AcDbSpline
210
0.0
220
0.0
230
1.0
 70
     8
 71
     3
 72
    14
 73
    10
 74
     0
 42
0.00000001
 43
0.00000001
 40
0.0
 40
0.0
 40
0.0
 40
0.0
 40
1.0
 40
1.0
 40
1.0
 40
2.0
 40
2.0
 40
2.0
 40
3.0
 40
3.0
 40
3.0
 40
3.0
 10
-51.15
 20
312.45
 10
-40.95
 20
310.65
 10
-35.85
 20
306.90
 10
-25.35
 20
308.25
 10
-6.00
 20
310.50
 10
3.15
 20
324.60
 10
22.05
 20
319.65
 10
31.20
 20
317.10
 10
35.70
 20
310.20
 10
44.85
 20
313.05
  0
SPLINE
 5
FB
100
AcDbEntity
  8
102000
100
AcDbSpline
210
0.0
220
0.0
230
1.0
 70
     8
 71
     3
 72
    62
 73
    58
 74
     0
 42
0.00000001
 43
0.00000001
 40
0.0
 40
0.0
 40
0.0
 40
0.0
 40
1.0
 40
1.0
 40
1.0
 40
2.0
 40
2.0
 40
2.0
 40
3.0
 40
3.0
 40
3.0
 40
4.0
 40
4.0
 40
4.0
 40
5.0
 40
5.0
 40
5.0
 40
6.0
 40
6.0
 40
6.0
 40
7.0
 40
7.0
 40
7.0
 40
8.0
 40
8.0
 40
8.0
 40
9.0
 40
9.0
 40
9.0
 40
10.0
 40
10.0
 40
10.0
 40
11.0
 40
11.0
 40
11.0
 40
12.0
 40
12.0
 40
12.0
 40
13.0
 40
13.0
 40
13.0
 40
14.0
 40
14.0
 40
14.0
 40
15.0
 40
15.0
 40
15.0
 40
16.0
 40
16.0
 40
16.0
 40
17.0
 40
17.0
 40
17.0
 40
18.0
 40
18.0
 40
18.0
 40
19.0
 40
19.0
 40
19.0
 40
19.0
 10
48.45
 20
343.65
 10
58.05
 20
348.30
 10
57.45
 20
326.70
 10
67.05
 20
323.85
 10
87.90
 20
317.55
 10
99.45
 20
298.95
 10
119.25
 20
308.25
 10
133.65
 20
318.75
 10
154.05
 20
314.85
 10
157.05
 20
332.85
 10
159.15
 20
346.05
 10
175.35
 20
362.40
 10
162.45
 20
365.85
 10
153.45
 20
366.75
 10
149.70
 20
370.05
 10
141.45
 20
370.05
 10
138.45
 20
370.05
 10
137.10
 20
369.60
 10
134.25
 20
370.05
 10
123.90
 20
375.45
 10
119.40
 20
381.60
 10
109.05
 20
380.85
 10
88.65
 20
379.05
 10
78.45
 20
375.75
 10
58.05
 20
376.65
 10
25.05
 20
378.00
 10
8.40
 20
384.15
 10
-24.15
 20
380.25
 10
-57.60
 20
376.05
 10
-110.55
 20
403.50
 10
-107.55
 20
370.05
 10
-106.50
 20
356.55
 10
-95.25
 20
345.45
 10
-105.15
 20
336.45
 10
-117.15
 20
325.65
 10
-147.60
 20
319.80
 10
-135.15
 20
309.45
 10
-124.35
 20
300.30
 10
-119.55
 20
278.10
 10
-108.15
 20
286.65
 10
-96.00
 20
295.65
 10
-92.85
 20
307.80
 10
-77.55
 20
309.45
 10
-69.30
 20
310.05
 10
-78.15
 20
349.05
 10
-54.75
 20
343.05
 10
-45.75
 20
340.65
 10
-42.15
 20
331.65
 10
-39.75
 20
329.25
 10
-29.70
 20
316.50
 10
-27.30
 20
315.75
 10
-11.55
 20
320.25
 10
-1.35
 20
323.10
 10
4.35
 20
331.50
 10
14.25
 20
327.45
 10
22.20
 20
324.00
 10
40.80
 20
346.50
 10
48.45
 20
343.65
  0
SPLINE
 5
FC
100
AcDbEntity
  8
102000
100
AcDbSpline
210
0.0
220
0.0
230
1.0
 70
     8
 71
     3
 72
    62
 73
    58
 74
     0
 42
0.00000001
 43
0.00000001
 40
0.0
 40
0.0
 40
0.0
 40
0.0
 40
1.0
 40
1.0
 40
1.0
 40
2.0
 40
2.0
 40
2.0
 40
3.0
 40
3.0
 40
3.0
 40
4.0
 40
4.0
 40
4.0
 40
5.0
 40
5.0
 40
5.0
 40
6.0
 40
6.0
 40
6.0
 40
7.0
 40
7.0
 40
7.0
 40
8.0
 40
8.0
 40
8.0
 40
9.0
 40
9.0
 40
9.0
 40
10.0
 40
10.0
 40
10.0
 40
11.0
 40
11.0
 40
11.0
 40
12.0
 40
12.0
 40
12.0
 40
13.0
 40
13.0
 40
13.0
 40
14.0
 40
14.0
 40
14.0
 40
15.0
 40
15.0
 40
15.0
 40
16.0
 40
16.0
 40
16.0
 40
17.0
 40
17.0
 40
17.0
 40
18.0
 40
18.0
 40
18.0
 40
19.0
 40
19.0
 40
19.0
 40
19.0
 10
48.45
 20
343.65
 10
58.05
 20
348.30
 10
57.45
 20
326.70
 10
67.05
 20
323.85
 10
87.90
 20
317.55
 10
99.45
 20
298.95
 10
119.25
 20
308.25
 10
133.65
 20
318.75
 10
154.05
 20
314.85
 10
157.05
 20
332.85
 10
159.15
 20
346.05
 10
175.35
 20
362.40
 10
162.45
 20
365.85
 10
153.45
 20
366.75
 10
149.70
 20
370.05
 10
141.45
 20
370.05
 10
138.45
 20
370.05
 10
137.10
 20
369.60
 10
134.25
 20
370.05
 10
123.90
 20
375.45
 10
119.40
 20
381.60
 10
109.05
 20
380.85
 10
88.65
 20
379.05
 10
78.45
 20
375.75
 10
58.05
 20
376.65
 10
25.05
 20
378.00
 10
8.40
 20
384.15
 10
-24.15
 20
380.25
 10
-57.60
 20
376.05
 10
-110.55
 20
403.50
 10
-107.55
 20
370.05
 10
-106.50
 20
356.55
 10
-95.25
 20
345.45
 10
-105.15
 20
336.45
 10
-117.15
 20
325.65
 10
-147.60
 20
319.80
 10
-135.15
 20
309.45
 10
-124.35
 20
300.30
 10
-119.55
 20
278.10
 10
-108.15
 20
286.65
 10
-96.00
 20
295.65
 10
-92.85
 20
307.80
 10
-77.55
 20
309.45
 10
-69.30
 20
310.05
 10
-78.15
 20
349.05
 10
-54.75
 20
343.05
 10
-45.75
 20
340.65
 10
-42.15
 20
331.65
 10
-39.75
 20
329.25
 10
-29.70
 20
316.50
 10
-27.30
 20
315.75
 10
-11.55
 20
320.25
 10
-1.35
 20
323.10
 10
4.35
 20
331.50
 10
14.25
 20
327.45
 10
22.20
 20
324.00
 10
40.80
 20
346.50
 10
48.45
 20
343.65
  0
POINT
 5
FD
100
AcDbEntity
  8
535000
100
AcDbPoint
 10
112.05
 20
344.85
 50
0.0
  0
SPLINE
 5
FE
100
AcDbEntity
  8
503000
100
AcDbSpline
210
0.0
220
0.0
230
1.0
 70
     8
 71
     3
 72
    17
 73
    13
 74
     0
 42
0.00000001
 43
0.00000001
 40
0.0
 40
0.0
 40
0.0
 40
0.0
 40
1.0
 40
1.0
 40
1.0
 40
2.0
 40
2.0
 40
2.0
 40
3.0
 40
3.0
 40
3.0
 40
4.0
 40
4.0
 40
4.0
 40
4.0
 10
-69.75
 20
178.05
 10
-72.75
 20
188.10
 10
-69.75
 20
195.60
 10
-76.95
 20
203.25
 10
-88.95
 20
215.70
 10
-92.10
 20
225.60
 10
-106.95
 20
234.45
 10
-131.25
 20
248.55
 10
-141.45
 20
259.80
 10
-167.55
 20
269.85
 10
-199.05
 20
281.85
 10
-213.60
 20
291.75
 10
-246.15
 20
299.85
  0
SPLINE
 5
FF
100
AcDbEntity
  8
212000
100
AcDbSpline
210
0.0
220
0.0
230
1.0
 70
     8
 71
     3
 72
    20
 73
    16
 74
     0
 42
0.00000001
 43
0.00000001
 40
0.0
 40
0.0
 40
0.0
 40
0.0
 40
1.0
 40
1.0
 40
1.0
 40
2.0
 40
2.0
 40
2.0
 40
3.0
 40
3.0
 40
3.0
 40
4.0
 40
4.0
 40
4.0
 40
5.0
 40
5.0
 40
5.0
 40
5.0
 10
-69.90
 20
365.85
 10
-71.25
 20
358.50
 10
-59.55
 20
350.25
 10
-43.80
 20
347.25
 10
-28.20
 20
344.25
 10
-14.25
 20
347.70
 10
-12.90
 20
355.05
 10
-11.55
 20
362.10
 10
-23.25
 20
370.35
 10
-38.85
 20
373.35
 10
-54.60
 20
376.35
 10
-68.55
 20
372.90
 10
-69.90
 20
365.85
 10
-69.90
 20
365.85
 10
-69.90
 20
365.85
 10
-69.90
 20
365.85
  0
SPLINE
 5
100
100
AcDbEntity
  8
302000
100
AcDbSpline
210
0.0
220
0.0
230
1.0
 70
     8
 71
     3
 72
    29
 73
    25
 74
     0
 42
0.00000001
 43
0.00000001
 40
0.0
 40
0.0
 40
0.0
 40
0.0
 40
1.0
 40
1.0
 40
1.0
 40
2.0
 40
2.0
 40
2.0
 40
3.0
 40
3.0
 40
3.0
 40
4.0
 40
4.0
 40
4.0
 40
5.0
 40
5.0
 40
5.0
 40
6.0
 40
6.0
 40
6.0
 40
7.0
 40
7.0
 40
7.0
 40
8.0
 40
8.0
 40
8.0
 40
8.0
 10
-221.10
 20
32.85
 10
-224.70
 20
27.75
 10
-227.85
 20
19.35
 10
-223.95
 20
11.85
 10
-221.25
 20
6.90
 10
-215.70
 20
2.40
 10
-205.05
 20
-0.60
 10
-188.40
 20
-5.55
 10
-162.75
 20
-51.15
 10
-168.30
 20
-3.15
 10
-145.35
 20
12.45
 10
-169.35
 20
17.25
 10
-184.20
 20
30.00
 10
-189.30
 20
34.35
 10
-199.95
 20
29.25
 10
-201.00
 20
42.30
 10
-201.45
 20
46.20
 10
-204.75
 20
46.05
 10
-210.90
 20
45.60
 10
-223.80
 20
43.35
 10
-219.90
 20
42.30
 10
-221.10
 20
32.85
 10
-221.10
 20
32.85
 10
-221.10
 20
32.85
 10
-221.10
 20
32.85
  0
SPLINE
 5
101
100
AcDbEntity
  8
310000
100
AcDbSpline
210
0.0
220
0.0
230
1.0
 70
     8
 71
     3
 72
    20
 73
    16
 74
     0
 42
0.00000001
 43
0.00000001
 40
0.0
 40
0.0
 40
0.0
 40
0.0
 40
1.0
 40
1.0
 40
1.0
 40
2.0
 40
2.0
 40
2.0
 40
3.0
 40
3.0
 40
3.0
 40
4.0
 40
4.0
 40
4.0
 40
5.0
 40
5.0
 40
5.0
 40
5.0
 10
-158.55
 20
203.85
 10
-236.55
 20
259.65
 10
-207.75
 20
202.95
 10
-213.90
 20
184.35
 10
-220.05
 20
165.75
 10
-205.20
 20
144.00
 10
-180.75
 20
136.05
 10
-141.75
 20
105.45
 10
-136.35
 20
139.05
 10
-125.70
 20
155.40
 10
-96.75
 20
200.25
 10
-134.40
 20
195.90
 10
-158.55
 20
203.85
 10
-158.55
 20
203.85
 10
-158.55
 20
203.85
 10
-158.55
 20
203.85
  0
LWPOLYLINE
 5
102
100
AcDbEntity
  8
527000
100
AcDbPolyline
 90
    13
 70
 1
 43
0.0
 10
-64.35
 20
178.65
 10
-9.15
 20
189.45
 10
22.65
 20
185.25
 10
23.85
 20
146.25
 10
41.85
 20
121.05
 10
43.35
 20
119.70
 10
43.65
 20
118.05
 10
20.25
 20
98.85
 10
11.25
 20
83.85
 10
-34.95
 20
70.65
 10
-99.75
 20
147.45
 10
-74.55
 20
176.85
 10
-64.35
 20
179.25
  0
LWPOLYLINE
 5
103
100
AcDbEntity
  8
522000
100
AcDbPolyline
 90
    11
 70
 0
 43
0.0
 10
-91.95
 20
-20.55
 10
-84.75
 20
-68.55
 10
-45.45
 20
-62.55
 10
-47.55
 20
-49.35
 10
-19.50
 20
-45.15
 10
-22.35
 20
-26.55
 10
-59.10
 20
-32.10
 10
-66.30
 20
14.85
 10
-87.30
 20
11.85
 10
-82.80
 20
-19.20
 10
-91.95
 20
-20.55
  0
POINT
 5
104
100
AcDbEntity
  8
205000
100
AcDbPoint
 10
168.45
 20
343.65
 50
0.0
  0
LWPOLYLINE
 5
105
100
AcDbEntity
  8
203000
100
AcDbPolyline
 90
    4
 70
 0
 43
0.0
 10
251.85
 20
279.45
 10
269.25
 20
299.25
 10
261.45
 20
321.45
 10
259.05
 20
328.05
  0
SPLINE
 5
106
100
AcDbEntity
  8
304000
100
AcDbSpline
210
0.0
220
0.0
230
1.0
 70
     8
 71
     3
 72
    14
 73
    10
 74
     0
 42
0.00000001
 43
0.00000001
 40
0.0
 40
0.0
 40
0.0
 40
0.0
 40
1.0
 40
1.0
 40
1.0
 40
2.0
 40
2.0
 40
2.0
 40
3.0
 40
3.0
 40
3.0
 40
3.0
 10
-223.95
 20
26.85
 10
-230.25
 20
27.00
 10
-233.85
 20
29.85
 10
-239.55
 20
27.45
 10
-246.30
 20
24.45
 10
-249.30
 20
18.45
 10
-256.35
 20
20.25
 10
-268.95
 20
23.25
 10
-280.50
 20
17.25
 10
-287.55
 20
28.05
  0
LWPOLYLINE
 5
107
100
AcDbEntity
  8
504000
100
AcDbPolyline
 90
    3
 70
 0
 43
0.0
 10
-221.55
 20
287.85
 10
-220.35
 20
264.45
 10
-241.95
 20
237.45
  0
POINT
 5
108
100
AcDbEntity
  8
701000
100
AcDbPoint
 10
-247.20
 20
370.95
 50
0.0
  0
POINT
 5
109
100
AcDbEntity
  8
702000
100
AcDbPoint
 10
167.25
 20
343.80
 50
0.0
  0
POINT
 5
10A
100
AcDbEntity
  8
702000
100
AcDbPoint
 10
279.00
 20
214.95
 50
0.0
  0
POINT
 5
10B
100
AcDbEntity
  8
702000
100
AcDbPoint
 10
150.60
 20
-75.75
 50
0.0
  0
POINT
 5
10C
100
AcDbEntity
  8
702000
100
AcDbPoint
 10
121.50
 20
135.45
 50
0.0
  0
POINT
 5
10D
100
AcDbEntity
  8
702000
100
AcDbPoint
 10
19.05
 20
251.10
 50
0.0
  0
POINT
 5
10E
100
AcDbEntity
  8
702000
100
AcDbPoint
 10
-182.40
 20
112.80
 50
0.0
  0
POINT
 5
10F
100
AcDbEntity
  8
706000
100
AcDbPoint
 10
-125.25
 20
-95.10
 50
0.0
  0
POINT
 5
110
100
AcDbEntity
  8
712000
100
AcDbPoint
 10
-76.80
 20
114.30
 50
0.0
  0
LWPOLYLINE
 5
111
100
AcDbEntity
  8
704000
100
AcDbPolyline
 90
    2
 70
 0
 43
0.0
 10
-186.60
 20
366.90
 10
124.80
 20
346.50
  0
LWPOLYLINE
 5
112
100
AcDbEntity
  8
704000
100
AcDbPolyline
 90
    2
 70
 0
 43
0.0
 10
131.25
 20
321.15
 10
54.90
 20
273.60
  0
MTEXT
 5
113
100
AcDbEntity
  8
703000
100
AcDbMText
 10
164.55
 20
401.55
 40
84.14
  1
1
 50
0.0
 71
7
  0
LWPOLYLINE
 5
114
100
AcDbEntity
  8
704000
100
AcDbPolyline
 90
    2
 70
 0
 43
0.0
 10
47.10
 20
219.30
 10
93.30
 20
167.10
  0
MTEXT
 5
115
100
AcDbEntity
  8
703000
100
AcDbMText
 10
-70.65
 20
233.10
 40
84.14
  1
2
 50
0.0
 71
7
  0
LWPOLYLINE
 5
116
100
AcDbEntity
  8
704000
100
AcDbPolyline
 90
    2
 70
 0
 43
0.0
 10
159.30
 20
154.50
 10
241.05
 20
195.75
  0
MTEXT
 5
117
100
AcDbEntity
  8
703000
100
AcDbMText
 10
52.05
 20
31.35
 40
84.14
  1
3
 50
0.0
 71
7
  0
LWPOLYLINE
 5
118
100
AcDbEntity
  8
704000
100
AcDbPolyline
 90
    2
 70
 0
 43
0.0
 10
261.75
 20
176.10
 10
167.70
 20
-37.05
  0
MTEXT
 5
119
100
AcDbEntity
  8
703000
100
AcDbMText
 10
335.25
 20
225.30
 40
84.14
  1
4
 50
0.0
 71
7
  0
LWPOLYLINE
 5
11A
100
AcDbEntity
  8
704000
100
AcDbPolyline
 90
    2
 70
 0
 43
0.0
 10
113.55
 20
-54.90
 10
-145.50
 20
91.80
  0
MTEXT
 5
11B
100
AcDbEntity
  8
703000
100
AcDbMText
 10
212.70
 20
-109.20
 40
84.14
  1
5
 50
0.0
 71
7
  0
LWPOLYLINE
 5
11C
100
AcDbEntity
  8
704000
100
AcDbPolyline
 90
    2
 70
 0
 43
0.0
 10
-171.15
 20
71.85
 10
-138.60
 20
-46.95
  0
MTEXT
 5
11D
100
AcDbEntity
  8
703000
100
AcDbMText
 10
-282.45
 20
88.65
 40
84.14
  1
6
 50
0.0
 71
7
  0
POINT
 5
11E
100
AcDbEntity
  8
720000
100
AcDbPoint
 10
456.75
 20
394.95
 50
0.0
  0
MTEXT
 5
11F
100
AcDbEntity
  8
703001
100
AcDbMText
 10
-202.95
 20
415.20
 40
52.92
  1
L1
 50
0.0
 71
7
  0
POINT
 5
120
100
AcDbEntity
  8
702000
100
AcDbPoint
 10
167.25
 20
343.80
 50
0.0
  0
MTEXT
 5
121
100
AcDbEntity
  8
703001
100
AcDbMText
 10
198.75
 20
375.30
 40
52.92
  1
31
 50
0.0
 71
7
  0
POINT
 5
122
100
AcDbEntity
  8
702000
100
AcDbPoint
 10
279.00
 20
214.95
 50
0.0
  0
MTEXT
 5
123
100
AcDbEntity
  8
703001
100
AcDbMText
 10
310.50
 20
246.45
 40
52.92
  1
32
 50
0.0
 71
7
  0
POINT
 5
124
100
AcDbEntity
  8
702000
100
AcDbPoint
 10
150.60
 20
-75.75
 50
0.0
  0
MTEXT
 5
125
100
AcDbEntity
  8
703001
100
AcDbMText
 10
182.10
 20
-44.25
 40
52.92
  1
33
 50
0.0
 71
7
  0
POINT
 5
126
100
AcDbEntity
  8
702000
100
AcDbPoint
 10
121.50
 20
135.45
 50
0.0
  0
MTEXT
 5
127
100
AcDbEntity
  8
703001
100
AcDbMText
 10
153.00
 20
166.95
 40
52.92
  1
34
 50
0.0
 71
7
  0
POINT
 5
128
100
AcDbEntity
  8
702000
100
AcDbPoint
 10
19.05
 20
251.10
 50
0.0
  0
MTEXT
 5
129
100
AcDbEntity
  8
703001
100
AcDbMText
 10
50.55
 20
282.60
 40
52.92
  1
35
 50
0.0
 71
7
  0
POINT
 5
12A
100
AcDbEntity
  8
702000
100
AcDbPoint
 10
-182.40
 20
112.80
 50
0.0
  0
MTEXT
 5
12B
100
AcDbEntity
  8
703001
100
AcDbMText
 10
-150.90
 20
144.30
 40
52.92
  1
36
 50
0.0
 71
7
  0
MTEXT
 5
12C
100
AcDbEntity
  8
703001
100
AcDbMText
 10
-88.50
 20
-58.35
 40
52.92
  1
M1
 50
0.0
 71
7
  0
LWPOLYLINE
 5
12D
100
AcDbEntity
  8
16001
100
AcDbPolyline
 90
    2
 70
 0
 43
0.0
 10
456.75
 20
394.95
 10
1221.75
 20
394.95
  0
LWPOLYLINE
 5
12E
100
AcDbEntity
  8
16001
100
AcDbPolyline
 90
    2
 70
 0
 43
0.0
 10
456.75
 20
394.95
 10
1221.75
 20
394.95
  0
LWPOLYLINE
 5
12F
100
AcDbEntity
  8
16001
100
AcDbPolyline
 90
    2
 70
 0
 43
0.0
 10
456.75
 20
394.95
 10
456.75
 20
304.95
  0
LWPOLYLINE
 5
130
100
AcDbEntity
  8
16001
100
AcDbPolyline
 90
    2
 70
 0
 43
0.0
 10
744.75
 20
394.95
 10
744.75
 20
304.95
  0
LWPOLYLINE
 5
131
100
AcDbEntity
  8
16001
100
AcDbPolyline
 90
    2
 70
 0
 43
0.0
 10
1041.75
 20
394.95
 10
1041.75
 20
304.95
  0
LWPOLYLINE
 5
132
100
AcDbEntity
  8
16001
100
AcDbPolyline
 90
    2
 70
 0
 43
0.0
 10
1221.75
 20
394.95
 10
1221.75
 20
304.95
  0
LWPOLYLINE
 5
133
100
AcDbEntity
  8
16001
100
AcDbPolyline
 90
    2
 70
 0
 43
0.0
 10
456.75
 20
304.95
 10
1221.75
 20
304.95
  0
LWPOLYLINE
 5
134
100
AcDbEntity
  8
16001
100
AcDbPolyline
 90
    2
 70
 0
 43
0.0
 10
456.75
 20
304.95
 10
1221.75
 20
304.95
  0
LWPOLYLINE
 5
135
100
AcDbEntity
  8
16001
100
AcDbPolyline
 90
    2
 70
 0
 43
0.0
 10
456.75
 20
304.95
 10
456.75
 20
214.95
  0
LWPOLYLINE
 5
136
100
AcDbEntity
  8
16002
100
AcDbPolyline
 90
    2
 70
 0
 43
0.0
 10
546.75
 20
304.95
 10
546.75
 20
214.95
  0
POINT
 5
137
100
AcDbEntity
  8
701000
100
AcDbPoint
 10
-247.20
 20
370.95
 50
-93.7
  0
MTEXT
 5
138
100
AcDbEntity
  8
17003
100
AcDbMText
 10
600.75
 20
331.95
 40
52.92
  1
A
 50
0.0
 71
8
  0
LWPOLYLINE
 5
139
100
AcDbEntity
  8
16002
100
AcDbPolyline
 90
    2
 70
 0
 43
0.0
 10
654.75
 20
304.95
 10
654.75
 20
214.95
  0
LWPOLYLINE
 5
13A
100
AcDbEntity
  8
16001
100
AcDbPolyline
 90
    2
 70
 0
 43
0.0
 10
744.75
 20
304.95
 10
744.75
 20
214.95
  0
LWPOLYLINE
 5
13B
100
AcDbEntity
  8
16002
100
AcDbPolyline
 90
    2
 70
 0
 43
0.0
 10
834.75
 20
304.95
 10
834.75
 20
214.95
  0
LWPOLYLINE
 5
13C
100
AcDbEntity
  8
16002
100
AcDbPolyline
 90
    2
 70
 0
 43
0.0
 10
924.75
 20
304.95
 10
924.75
 20
214.95
  0
LWPOLYLINE
 5
13D
100
AcDbEntity
  8
16001
100
AcDbPolyline
 90
    2
 70
 0
 43
0.0
 10
1041.75
 20
304.95
 10
1041.75
 20
214.95
  0
LWPOLYLINE
 5
13E
100
AcDbEntity
  8
16002
100
AcDbPolyline
 90
    2
 70
 0
 43
0.0
 10
1131.75
 20
304.95
 10
1131.75
 20
214.95
  0
LWPOLYLINE
 5
13F
100
AcDbEntity
  8
16001
100
AcDbPolyline
 90
    2
 70
 0
 43
0.0
 10
1221.75
 20
304.95
 10
1221.75
 20
214.95
  0
LWPOLYLINE
 5
140
100
AcDbEntity
  8
16001
100
AcDbPolyline
 90
    2
 70
 0
 43
0.0
 10
456.75
 20
214.95
 10
1221.75
 20
214.95
  0
LWPOLYLINE
 5
141
100
AcDbEntity
  8
16001
100
AcDbPolyline
 90
    2
 70
 0
 43
0.0
 10
456.75
 20
214.95
 10
456.75
 20
124.95
  0
LWPOLYLINE
 5
142
100
AcDbEntity
  8
16002
100
AcDbPolyline
 90
    2
 70
 0
 43
0.0
 10
546.75
 20
214.95
 10
546.75
 20
124.95
  0
MTEXT
 5
143
100
AcDbEntity
  8
17003
100
AcDbMText
 10
893.25
 20
331.95
 40
52.92
  1
1.8 km
 50
0.0
 71
8
  0
POINT
 5
144
100
AcDbEntity
  8
15001
100
AcDbPoint
 10
501.75
 20
259.95
 50
0.0
  0
LWPOLYLINE
 5
145
100
AcDbEntity
  8
16002
100
AcDbPolyline
 90
    2
 70
 0
 43
0.0
 10
654.75
 20
214.95
 10
654.75
 20
124.95
  0
LWPOLYLINE
 5
146
100
AcDbEntity
  8
16001
100
AcDbPolyline
 90
    2
 70
 0
 43
0.0
 10
744.75
 20
214.95
 10
744.75
 20
124.95
  0
LWPOLYLINE
 5
147
100
AcDbEntity
  8
16002
100
AcDbPolyline
 90
    2
 70
 0
 43
0.0
 10
834.75
 20
214.95
 10
834.75
 20
124.95
  0
LWPOLYLINE
 5
148
100
AcDbEntity
  8
16002
100
AcDbPolyline
 90
    2
 70
 0
 43
0.0
 10
924.75
 20
214.95
 10
924.75
 20
124.95
  0
LWPOLYLINE
 5
149
100
AcDbEntity
  8
16001
100
AcDbPolyline
 90
    2
 70
 0
 43
0.0
 10
1041.75
 20
214.95
 10
1041.75
 20
124.95
  0
LWPOLYLINE
 5
14A
100
AcDbEntity
  8
16002
100
AcDbPolyline
 90
    2
 70
 0
 43
0.0
 10
1131.75
 20
214.95
 10
1131.75
 20
124.95
  0
LWPOLYLINE
 5
14B
100
AcDbEntity
  8
16001
100
AcDbPolyline
 90
    2
 70
 0
 43
0.0
 10
1221.75
 20
214.95
 10
1221.75
 20
124.95
  0
LWPOLYLINE
 5
14C
100
AcDbEntity
  8
16002
100
AcDbPolyline
 90
    2
 70
 0
 43
0.0
 10
456.75
 20
124.95
 10
1221.75
 20
124.95
  0
LWPOLYLINE
 5
14D
100
AcDbEntity
  8
16001
100
AcDbPolyline
 90
    2
 70
 0
 43
0.0
 10
456.75
 20
124.95
 10
456.75
 20
34.95
  0
LWPOLYLINE
 5
14E
100
AcDbEntity
  8
16002
100
AcDbPolyline
 90
    2
 70
 0
 43
0.0
 10
546.75
 20
124.95
 10
546.75
 20
34.95
  0
MTEXT
 5
14F
100
AcDbEntity
  8
17001
100
AcDbMText
 10
501.75
 20
147.45
 40
58.21
  1
1
 50
0.0
 71
8
  0
POINT
 5
150
100
AcDbEntity
  8
218000
100
AcDbPoint
 10
789.75
 20
169.95
 50
0.0
  0
LWPOLYLINE
 5
151
100
AcDbEntity
  8
16002
100
AcDbPolyline
 90
    2
 70
 0
 43
0.0
 10
654.75
 20
124.95
 10
654.75
 20
34.95
  0
LWPOLYLINE
 5
152
100
AcDbEntity
  8
16001
100
AcDbPolyline
 90
    2
 70
 0
 43
0.0
 10
744.75
 20
124.95
 10
744.75
 20
34.95
  0
LWPOLYLINE
 5
153
100
AcDbEntity
  8
16002
100
AcDbPolyline
 90
    2
 70
 0
 43
0.0
 10
834.75
 20
124.95
 10
834.75
 20
34.95
  0
LWPOLYLINE
 5
154
100
AcDbEntity
  8
16002
100
AcDbPolyline
 90
    2
 70
 0
 43
0.0
 10
924.75
 20
124.95
 10
924.75
 20
34.95
  0
LWPOLYLINE
 5
155
100
AcDbEntity
  8
16001
100
AcDbPolyline
 90
    2
 70
 0
 43
0.0
 10
1041.75
 20
124.95
 10
1041.75
 20
34.95
  0
LWPOLYLINE
 5
156
100
AcDbEntity
  8
16002
100
AcDbPolyline
 90
    2
 70
 0
 43
0.0
 10
1131.75
 20
124.95
 10
1131.75
 20
34.95
  0
LWPOLYLINE
 5
157
100
AcDbEntity
  8
16001
100
AcDbPolyline
 90
    2
 70
 0
 43
0.0
 10
1221.75
 20
124.95
 10
1221.75
 20
34.95
  0
LWPOLYLINE
 5
158
100
AcDbEntity
  8
16002
100
AcDbPolyline
 90
    2
 70
 0
 43
0.0
 10
456.75
 20
34.95
 10
1221.75
 20
34.95
  0
LWPOLYLINE
 5
159
100
AcDbEntity
  8
16001
100
AcDbPolyline
 90
    2
 70
 0
 43
0.0
 10
456.75
 20
34.95
 10
456.75
 20
-55.05
  0
LWPOLYLINE
 5
15A
100
AcDbEntity
  8
16002
100
AcDbPolyline
 90
    2
 70
 0
 43
0.0
 10
546.75
 20
34.95
 10
546.75
 20
-55.05
  0
MTEXT
 5
15B
100
AcDbEntity
  8
17002
100
AcDbMText
 10
600.75
 20
147.45
 40
52.92
  1
31
 50
0.0
 71
8
  0
POINT
 5
15C
100
AcDbEntity
  8
501002
100
AcDbPoint
 10
1086.75
 20
169.95
 50
0.0
  0
LWPOLYLINE
 5
15D
100
AcDbEntity
  8
16002
100
AcDbPolyline
 90
    2
 70
 0
 43
0.0
 10
654.75
 20
34.95
 10
654.75
 20
-55.05
  0
LWPOLYLINE
 5
15E
100
AcDbEntity
  8
16001
100
AcDbPolyline
 90
    2
 70
 0
 43
0.0
 10
744.75
 20
34.95
 10
744.75
 20
-55.05
  0
LWPOLYLINE
 5
15F
100
AcDbEntity
  8
16002
100
AcDbPolyline
 90
    2
 70
 0
 43
0.0
 10
834.75
 20
34.95
 10
834.75
 20
-55.05
  0
LWPOLYLINE
 5
160
100
AcDbEntity
  8
16002
100
AcDbPolyline
 90
    2
 70
 0
 43
0.0
 10
924.75
 20
34.95
 10
924.75
 20
-55.05
  0
LWPOLYLINE
 5
161
100
AcDbEntity
  8
16001
100
AcDbPolyline
 90
    2
 70
 0
 43
0.0
 10
1041.75
 20
34.95
 10
1041.75
 20
-55.05
  0
LWPOLYLINE
 5
162
100
AcDbEntity
  8
16002
100
AcDbPolyline
 90
    2
 70
 0
 43
0.0
 10
1131.75
 20
34.95
 10
1131.75
 20
-55.05
  0
LWPOLYLINE
 5
163
100
AcDbEntity
  8
16001
100
AcDbPolyline
 90
    2
 70
 0
 43
0.0
 10
1221.75
 20
34.95
 10
1221.75
 20
-55.05
  0
LWPOLYLINE
 5
164
100
AcDbEntity
  8
16001
100
AcDbPolyline
 90
    2
 70
 0
 43
0.0
 10
456.75
 20
-55.05
 10
1221.75
 20
-55.05
  0
LWPOLYLINE
 5
165
100
AcDbEntity
  8
16001
100
AcDbPolyline
 90
    2
 70
 0
 43
0.0
 10
456.75
 20
-55.05
 10
456.75
 20
-145.05
  0
LWPOLYLINE
 5
166
100
AcDbEntity
  8
16002
100
AcDbPolyline
 90
    2
 70
 0
 43
0.0
 10
546.75
 20
-55.05
 10
546.75
 20
-145.05
  0
MTEXT
 5
167
100
AcDbEntity
  8
17001
100
AcDbMText
 10
501.75
 20
57.45
 40
58.21
  1
2
 50
0.0
 71
8
  0
POINT
 5
168
100
AcDbEntity
  8
241000
100
AcDbPoint
 10
789.75
 20
79.95
 50
0.0
  0
LWPOLYLINE
 5
169
100
AcDbEntity
  8
16002
100
AcDbPolyline
 90
    2
 70
 0
 43
0.0
 10
654.75
 20
-55.05
 10
654.75
 20
-145.05
  0
LWPOLYLINE
 5
16A
100
AcDbEntity
  8
16001
100
AcDbPolyline
 90
    2
 70
 0
 43
0.0
 10
744.75
 20
-55.05
 10
744.75
 20
-145.05
  0
LWPOLYLINE
 5
16B
100
AcDbEntity
  8
16002
100
AcDbPolyline
 90
    2
 70
 0
 43
0.0
 10
834.75
 20
-55.05
 10
834.75
 20
-145.05
  0
LWPOLYLINE
 5
16C
100
AcDbEntity
  8
16002
100
AcDbPolyline
 90
    2
 70
 0
 43
0.0
 10
924.75
 20
-55.05
 10
924.75
 20
-145.05
  0
LWPOLYLINE
 5
16D
100
AcDbEntity
  8
16001
100
AcDbPolyline
 90
    2
 70
 0
 43
0.0
 10
1041.75
 20
-55.05
 10
1041.75
 20
-145.05
  0
LWPOLYLINE
 5
16E
100
AcDbEntity
  8
16002
100
AcDbPolyline
 90
    2
 70
 0
 43
0.0
 10
1131.75
 20
-55.05
 10
1131.75
 20
-145.05
  0
LWPOLYLINE
 5
16F
100
AcDbEntity
  8
16001
100
AcDbPolyline
 90
    2
 70
 0
 43
0.0
 10
1221.75
 20
-55.05
 10
1221.75
 20
-145.05
  0
LWPOLYLINE
 5
170
100
AcDbEntity
  8
16002
100
AcDbPolyline
 90
    2
 70
 0
 43
0.0
 10
456.75
 20
-145.05
 10
1221.75
 20
-145.05
  0
LWPOLYLINE
 5
171
100
AcDbEntity
  8
16001
100
AcDbPolyline
 90
    2
 70
 0
 43
0.0
 10
456.75
 20
-145.05
 10
456.75
 20
-235.05
  0
LWPOLYLINE
 5
172
100
AcDbEntity
  8
16002
100
AcDbPolyline
 90
    2
 70
 0
 43
0.0
 10
546.75
 20
-145.05
 10
546.75
 20
-235.05
  0
MTEXT
 5
173
100
AcDbEntity
  8
17002
100
AcDbMText
 10
600.75
 20
57.45
 40
52.92
  1
35
 50
0.0
 71
8
  0
POINT
 5
174
100
AcDbEntity
  8
508005
100
AcDbPoint
 10
1086.75
 20
79.95
 50
0.0
  0
LWPOLYLINE
 5
175
100
AcDbEntity
  8
16002
100
AcDbPolyline
 90
    2
 70
 0
 43
0.0
 10
654.75
 20
-145.05
 10
654.75
 20
-235.05
  0
LWPOLYLINE
 5
176
100
AcDbEntity
  8
16001
100
AcDbPolyline
 90
    2
 70
 0
 43
0.0
 10
744.75
 20
-145.05
 10
744.75
 20
-235.05
  0
LWPOLYLINE
 5
177
100
AcDbEntity
  8
16002
100
AcDbPolyline
 90
    2
 70
 0
 43
0.0
 10
834.75
 20
-145.05
 10
834.75
 20
-235.05
  0
LWPOLYLINE
 5
178
100
AcDbEntity
  8
16002
100
AcDbPolyline
 90
    2
 70
 0
 43
0.0
 10
924.75
 20
-145.05
 10
924.75
 20
-235.05
  0
LWPOLYLINE
 5
179
100
AcDbEntity
  8
16001
100
AcDbPolyline
 90
    2
 70
 0
 43
0.0
 10
1041.75
 20
-145.05
 10
1041.75
 20
-235.05
  0
LWPOLYLINE
 5
17A
100
AcDbEntity
  8
16002
100
AcDbPolyline
 90
    2
 70
 0
 43
0.0
 10
1131.75
 20
-145.05
 10
1131.75
 20
-235.05
  0
LWPOLYLINE
 5
17B
100
AcDbEntity
  8
16001
100
AcDbPolyline
 90
    2
 70
 0
 43
0.0
 10
1221.75
 20
-145.05
 10
1221.75
 20
-235.05
  0
LWPOLYLINE
 5
17C
100
AcDbEntity
  8
16002
100
AcDbPolyline
 90
    2
 70
 0
 43
0.0
 10
456.75
 20
-235.05
 10
1221.75
 20
-235.05
  0
LWPOLYLINE
 5
17D
100
AcDbEntity
  8
16001
100
AcDbPolyline
 90
    2
 70
 0
 43
0.0
 10
456.75
 20
-235.05
 10
456.75
 20
-325.05
  0
LWPOLYLINE
 5
17E
100
AcDbEntity
  8
16002
100
AcDbPolyline
 90
    2
 70
 0
 43
0.0
 10
546.75
 20
-235.05
 10
546.75
 20
-325.05
  0
MTEXT
 5
17F
100
AcDbEntity
  8
17001
100
AcDbMText
 10
501.75
 20
-32.55
 40
58.21
  1
3
 50
0.0
 71
8
  0
LWPOLYLINE
 5
180
100
AcDbEntity
  8
16002
100
AcDbPolyline
 90
    2
 70
 0
 43
0.0
 10
654.75
 20
-235.05
 10
654.75
 20
-325.05
  0
MTEXT
 5
181
100
AcDbEntity
  8
17002
100
AcDbMText
 10
600.75
 20
-32.55
 40
52.92
  1
34
 50
0.0
 71
8
  0
MTEXT
 5
182
100
AcDbEntity
  8
17001
100
AcDbMText
 10
501.75
 20
-122.55
 40
58.21
  1
4
 50
0.0
 71
8
  0
MTEXT
 5
183
100
AcDbEntity
  8
17002
100
AcDbMText
 10
600.75
 20
-122.55
 40
52.92
  1
32
 50
0.0
 71
8
  0
MTEXT
 5
184
100
AcDbEntity
  8
17001
100
AcDbMText
 10
501.75
 20
-212.55
 40
58.21
  1
5
 50
0.0
 71
8
  0
MTEXT
 5
185
100
AcDbEntity
  8
17002
100
AcDbMText
 10
600.75
 20
-212.55
 40
52.92
  1
33
 50
0.0
 71
8
  0
POINT
 5
186
100
AcDbEntity
  8
219000
100
AcDbPoint
 10
789.75
 20
-10.05
 50
0.0
  0
MTEXT
 5
187
100
AcDbEntity
  8
17001
100
AcDbMText
 10
501.75
 20
-302.55
 40
58.21
  1
6
 50
0.0
 71
8
  0
LWPOLYLINE
 5
188
100
AcDbEntity
  8
16001
100
AcDbPolyline
 90
    2
 70
 0
 43
0.0
 10
744.75
 20
-235.05
 10
744.75
 20
-325.05
  0
LWPOLYLINE
 5
189
100
AcDbEntity
  8
16002
100
AcDbPolyline
 90
    2
 70
 0
 43
0.0
 10
834.75
 20
-235.05
 10
834.75
 20
-325.05
  0
LWPOLYLINE
 5
18A
100
AcDbEntity
  8
16002
100
AcDbPolyline
 90
    2
 70
 0
 43
0.0
 10
924.75
 20
-235.05
 10
924.75
 20
-325.05
  0
LWPOLYLINE
 5
18B
100
AcDbEntity
  8
16001
100
AcDbPolyline
 90
    2
 70
 0
 43
0.0
 10
1041.75
 20
-235.05
 10
1041.75
 20
-325.05
  0
LWPOLYLINE
 5
18C
100
AcDbEntity
  8
16002
100
AcDbPolyline
 90
    2
 70
 0
 43
0.0
 10
1131.75
 20
-235.05
 10
1131.75
 20
-325.05
  0
LWPOLYLINE
 5
18D
100
AcDbEntity
  8
16001
100
AcDbPolyline
 90
    2
 70
 0
 43
0.0
 10
1221.75
 20
-235.05
 10
1221.75
 20
-325.05
  0
MTEXT
 5
18E
100
AcDbEntity
  8
17002
100
AcDbMText
 10
600.75
 20
-302.55
 40
52.92
  1
36
 50
0.0
 71
8
  0
LWPOLYLINE
 5
18F
100
AcDbEntity
  8
16001
100
AcDbPolyline
 90
    2
 70
 0
 43
0.0
 10
456.75
 20
-325.05
 10
1221.75
 20
-325.05
  0
LWPOLYLINE
 5
190
100
AcDbEntity
  8
16001
100
AcDbPolyline
 90
    2
 70
 0
 43
0.0
 10
456.75
 20
-325.05
 10
456.75
 20
-415.05
  0
LWPOLYLINE
 5
191
100
AcDbEntity
  8
16001
100
AcDbPolyline
 90
    2
 70
 0
 43
0.0
 10
1221.75
 20
-325.05
 10
1221.75
 20
-415.05
  0
POINT
 5
192
100
AcDbEntity
  8
511000
100
AcDbPoint
 10
1086.75
 20
-10.05
 50
0.0
  0
POINT
 5
193
100
AcDbEntity
  8
216000
100
AcDbPoint
 10
789.75
 20
-100.05
 50
0.0
  0
POINT
 5
194
100
AcDbEntity
  8
508004
100
AcDbPoint
 10
1086.75
 20
-100.05
 50
0.0
  0
POINT
 5
195
100
AcDbEntity
  8
260000
100
AcDbPoint
 10
789.75
 20
-190.05
 50
0.0
  0
MTEXT
 5
196
100
AcDbEntity
  8
17004
100
AcDbMText
 10
834.75
 20
-392.55
 40
52.92
  1
220 m
 50
0.0
 71
8
  0
LWPOLYLINE
 5
197
100
AcDbEntity
  8
16001
100
AcDbPolyline
 90
    2
 70
 0
 43
0.0
 10
456.75
 20
-415.05
 10
1221.75
 20
-415.05
  0
MTEXT
 5
198
100
AcDbEntity
  8
17002
100
AcDbMText
 10
839.25
 20
-478.05
 40
52.92
  1
OCAD 10 Trial
 50
0.0
 71
8
  0
POINT
 5
199
100
AcDbEntity
  8
501007
100
AcDbPoint
 10
1086.75
 20
-190.05
 50
0.0
  0
POINT
 5
19A
100
AcDbEntity
  8
202000
100
AcDbPoint
 10
789.75
 20
-280.05
 50
0.0
  0
POINT
 5
19B
100
AcDbEntity
  8
505005
100
AcDbPoint
 10
1086.75
 20
-280.05
 50
0.0
  0
POINT
 5
19C
100
AcDbEntity
  8
602000
100
AcDbPoint
 10
1176.75
 20
-280.05
 50
0.0
  0
POINT
 5
19D
100
AcDbEntity
  8
15002
100
AcDbPoint
 10
501.75
 20
-370.05
 50
0.0
  0
POINT
 5
19E
100
AcDbEntity
  8
14003
100
AcDbPoint
 10
555.75
 20
-370.05
 50
0.0
  0
POINT
 5
19F
100
AcDbEntity
  8
15004
100
AcDbPoint
 10
1122.75
 20
-370.05
 50
0.0
  0
POINT
 5
1A0
100
AcDbEntity
  8
15003
100
AcDbPoint
 10
1176.75
 20
-370.05
 50
0.0
  0
POINT
 5
1A1
100
AcDbEntity
  8
701000
100
AcDbPoint
 10
-247.20
 20
370.95
 50
-93.7
  0
LWPOLYLINE
 5
1A2
100
AcDbEntity
  8
16001
100
AcDbPolyline
 90
    2
 70
 0
 43
0.0
 10
456.75
 20
394.95
 10
1221.75
 20
394.95
  0
LWPOLYLINE
 5
1A3
100
AcDbEntity
  8
16001
100
AcDbPolyline
 90
    2
 70
 0
 43
0.0
 10
456.75
 20
394.95
 10
1221.75
 20
394.95
  0
MTEXT
 5
1A4
100
AcDbEntity
  8
17003
100
AcDbMText
 10
600.75
 20
331.95
 40
52.92
  1
A
 50
0.0
 71
8
  0
MTEXT
 5
1A5
100
AcDbEntity
  8
17003
100
AcDbMText
 10
893.25
 20
331.95
 40
52.92
  1
1.8 km
 50
0.0
 71
8
  0
LWPOLYLINE
 5
1A6
100
AcDbEntity
  8
16001
100
AcDbPolyline
 90
    2
 70
 0
 43
0.0
 10
456.75
 20
394.95
 10
456.75
 20
304.95
  0
LWPOLYLINE
 5
1A7
100
AcDbEntity
  8
16001
100
AcDbPolyline
 90
    2
 70
 0
 43
0.0
 10
744.75
 20
394.95
 10
744.75
 20
304.95
  0
LWPOLYLINE
 5
1A8
100
AcDbEntity
  8
16001
100
AcDbPolyline
 90
    2
 70
 0
 43
0.0
 10
1041.75
 20
394.95
 10
1041.75
 20
304.95
  0
LWPOLYLINE
 5
1A9
100
AcDbEntity
  8
16001
100
AcDbPolyline
 90
    2
 70
 0
 43
0.0
 10
1221.75
 20
394.95
 10
1221.75
 20
304.95
  0
LWPOLYLINE
 5
1AA
100
AcDbEntity
  8
16001
100
AcDbPolyline
 90
    2
 70
 0
 43
0.0
 10
456.75
 20
304.95
 10
1221.75
 20
304.95
  0
LWPOLYLINE
 5
1AB
100
AcDbEntity
  8
16001
100
AcDbPolyline
 90
    2
 70
 0
 43
0.0
 10
456.75
 20
304.95
 10
1221.75
 20
304.95
  0
LWPOLYLINE
 5
1AC
100
AcDbEntity
  8
16001
100
AcDbPolyline
 90
    2
 70
 0
 43
0.0
 10
456.75
 20
304.95
 10
456.75
 20
214.95
  0
LWPOLYLINE
 5
1AD
100
AcDbEntity
  8
16002
100
AcDbPolyline
 90
    2
 70
 0
 43
0.0
 10
546.75
 20
304.95
 10
546.75
 20
214.95
  0
LWPOLYLINE
 5
1AE
100
AcDbEntity
  8
16002
100
AcDbPolyline
 90
    2
 70
 0
 43
0.0
 10
654.75
 20
304.95
 10
654.75
 20
214.95
  0
LWPOLYLINE
 5
1AF
100
AcDbEntity
  8
16001
100
AcDbPolyline
 90
    2
 70
 0
 43
0.0
 10
744.75
 20
304.95
 10
744.75
 20
214.95
  0
LWPOLYLINE
 5
1B0
100
AcDbEntity
  8
16002
100
AcDbPolyline
 90
    2
 70
 0
 43
0.0
 10
834.75
 20
304.95
 10
834.75
 20
214.95
  0
LWPOLYLINE
 5
1B1
100
AcDbEntity
  8
16002
100
AcDbPolyline
 90
    2
 70
 0
 43
0.0
 10
924.75
 20
304.95
 10
924.75
 20
214.95
  0
LWPOLYLINE
 5
1B2
100
AcDbEntity
  8
16001
100
AcDbPolyline
 90
    2
 70
 0
 43
0.0
 10
1041.75
 20
304.95
 10
1041.75
 20
214.95
  0
LWPOLYLINE
 5
1B3
100
AcDbEntity
  8
16002
100
AcDbPolyline
 90
    2
 70
 0
 43
0.0
 10
1131.75
 20
304.95
 10
1131.75
 20
214.95
  0
LWPOLYLINE
 5
1B4
100
AcDbEntity
  8
16001
100
AcDbPolyline
 90
    2
 70
 0
 43
0.0
 10
1221.75
 20
304.95
 10
1221.75
 20
214.95
  0
POINT
 5
1B5
100
AcDbEntity
  8
15001
100
AcDbPoint
 10
501.75
 20
259.95
 50
0.0
  0
LWPOLYLINE
 5
1B6
100
AcDbEntity
  8
16001
100
AcDbPolyline
 90
    2
 70
 0
 43
0.0
 10
456.75
 20
214.95
 10
1221.75
 20
214.95
  0
MTEXT
 5
1B7
100
AcDbEntity
  8
17001
100
AcDbMText
 10
501.75
 20
147.45
 40
58.21
  1
1
 50
0.0
 71
8
  0
LWPOLYLINE
 5
1B8
100
AcDbEntity
  8
16001
100
AcDbPolyline
 90
    2
 70
 0
 43
0.0
 10
456.75
 20
214.95
 10
456.75
 20
124.95
  0
LWPOLYLINE
 5
1B9
100
AcDbEntity
  8
16002
100
AcDbPolyline
 90
    2
 70
 0
 43
0.0
 10
546.75
 20
214.95
 10
546.75
 20
124.95
  0
LWPOLYLINE
 5
1BA
100
AcDbEntity
  8
16002
100
AcDbPolyline
 90
    2
 70
 0
 43
0.0
 10
654.75
 20
214.95
 10
654.75
 20
124.95
  0
LWPOLYLINE
 5
1BB
100
AcDbEntity
  8
16001
100
AcDbPolyline
 90
    2
 70
 0
 43
0.0
 10
744.75
 20
214.95
 10
744.75
 20
124.95
  0
LWPOLYLINE
 5
1BC
100
AcDbEntity
  8
16002
100
AcDbPolyline
 90
    2
 70
 0
 43
0.0
 10
834.75
 20
214.95
 10
834.75
 20
124.95
  0
LWPOLYLINE
 5
1BD
100
AcDbEntity
  8
16002
100
AcDbPolyline
 90
    2
 70
 0
 43
0.0
 10
924.75
 20
214.95
 10
924.75
 20
124.95
  0
LWPOLYLINE
 5
1BE
100
AcDbEntity
  8
16001
100
AcDbPolyline
 90
    2
 70
 0
 43
0.0
 10
1041.75
 20
214.95
 10
1041.75
 20
124.95
  0
LWPOLYLINE
 5
1BF
100
AcDbEntity
  8
16002
100
AcDbPolyline
 90
    2
 70
 0
 43
0.0
 10
1131.75
 20
214.95
 10
1131.75
 20
124.95
  0
LWPOLYLINE
 5
1C0
100
AcDbEntity
  8
16001
100
AcDbPolyline
 90
    2
 70
 0
 43
0.0
 10
1221.75
 20
214.95
 10
1221.75
 20
124.95
  0
MTEXT
 5
1C1
100
AcDbEntity
  8
17002
100
AcDbMText
 10
600.75
 20
147.45
 40
52.92
  1
31
 50
0.0
 71
8
  0
POINT
 5
1C2
100
AcDbEntity
  8
218000
100
AcDbPoint
 10
789.75
 20
169.95
 50
0.0
  0
POINT
 5
1C3
100
AcDbEntity
  8
501002
100
AcDbPoint
 10
1086.75
 20
169.95
 50
0.0
  0
LWPOLYLINE
 5
1C4
100
AcDbEntity
  8
16002
100
AcDbPolyline
 90
    2
 70
 0
 43
0.0
 10
456.75
 20
124.95
 10
1221.75
 20
124.95
  0
MTEXT
 5
1C5
100
AcDbEntity
  8
17001
100
AcDbMText
 10
501.75
 20
57.45
 40
58.21
  1
2
 50
0.0
 71
8
  0
LWPOLYLINE
 5
1C6
100
AcDbEntity
  8
16001
100
AcDbPolyline
 90
    2
 70
 0
 43
0.0
 10
456.75
 20
124.95
 10
456.75
 20
34.95
  0
LWPOLYLINE
 5
1C7
100
AcDbEntity
  8
16002
100
AcDbPolyline
 90
    2
 70
 0
 43
0.0
 10
546.75
 20
124.95
 10
546.75
 20
34.95
  0
LWPOLYLINE
 5
1C8
100
AcDbEntity
  8
16002
100
AcDbPolyline
 90
    2
 70
 0
 43
0.0
 10
654.75
 20
124.95
 10
654.75
 20
34.95
  0
LWPOLYLINE
 5
1C9
100
AcDbEntity
  8
16001
100
AcDbPolyline
 90
    2
 70
 0
 43
0.0
 10
744.75
 20
124.95
 10
744.75
 20
34.95
  0
LWPOLYLINE
 5
1CA
100
AcDbEntity
  8
16002
100
AcDbPolyline
 90
    2
 70
 0
 43
0.0
 10
834.75
 20
124.95
 10
834.75
 20
34.95
  0
LWPOLYLINE
 5
1CB
100
AcDbEntity
  8
16002
100
AcDbPolyline
 90
    2
 70
 0
 43
0.0
 10
924.75
 20
124.95
 10
924.75
 20
34.95
  0
LWPOLYLINE
 5
1CC
100
AcDbEntity
  8
16001
100
AcDbPolyline
 90
    2
 70
 0
 43
0.0
 10
1041.75
 20
124.95
 10
1041.75
 20
34.95
  0
LWPOLYLINE
 5
1CD
100
AcDbEntity
  8
16002
100
AcDbPolyline
 90
    2
 70
 0
 43
0.0
 10
1131.75
 20
124.95
 10
1131.75
 20
34.95
  0
LWPOLYLINE
 5
1CE
100
AcDbEntity
  8
16001
100
AcDbPolyline
 90
    2
 70
 0
 43
0.0
 10
1221.75
 20
124.95
 10
1221.75
 20
34.95
  0
MTEXT
 5
1CF
100
AcDbEntity
  8
17002
100
AcDbMText
 10
600.75
 20
57.45
 40
52.92
  1
35
 50
0.0
 71
8
  0
POINT
 5
1D0
100
AcDbEntity
  8
241000
100
AcDbPoint
 10
789.75
 20
79.95
 50
0.0
  0
POINT
 5
1D1
100
AcDbEntity
  8
508005
100
AcDbPoint
 10
1086.75
 20
79.95
 50
0.0
  0
LWPOLYLINE
 5
1D2
100
AcDbEntity
  8
16002
100
AcDbPolyline
 90
    2
 70
 0
 43
0.0
 10
456.75
 20
34.95
 10
1221.75
 20
34.95
  0
MTEXT
 5
1D3
100
AcDbEntity
  8
17001
100
AcDbMText
 10
501.75
 20
-32.55
 40
58.21
  1
3
 50
0.0
 71
8
  0
LWPOLYLINE
 5
1D4
100
AcDbEntity
  8
16001
100
AcDbPolyline
 90
    2
 70
 0
 43
0.0
 10
456.75
 20
34.95
 10
456.75
 20
-55.05
  0
LWPOLYLINE
 5
1D5
100
AcDbEntity
  8
16002
100
AcDbPolyline
 90
    2
 70
 0
 43
0.0
 10
546.75
 20
34.95
 10
546.75
 20
-55.05
  0
LWPOLYLINE
 5
1D6
100
AcDbEntity
  8
16002
100
AcDbPolyline
 90
    2
 70
 0
 43
0.0
 10
654.75
 20
34.95
 10
654.75
 20
-55.05
  0
LWPOLYLINE
 5
1D7
100
AcDbEntity
  8
16001
100
AcDbPolyline
 90
    2
 70
 0
 43
0.0
 10
744.75
 20
34.95
 10
744.75
 20
-55.05
  0
LWPOLYLINE
 5
1D8
100
AcDbEntity
  8
16002
100
AcDbPolyline
 90
    2
 70
 0
 43
0.0
 10
834.75
 20
34.95
 10
834.75
 20
-55.05
  0
LWPOLYLINE
 5
1D9
100
AcDbEntity
  8
16002
100
AcDbPolyline
 90
    2
 70
 0
 43
0.0
 10
924.75
 20
34.95
 10
924.75
 20
-55.05
  0
LWPOLYLINE
 5
1DA
100
AcDbEntity
  8
16001
100
AcDbPolyline
 90
    2
 70
 0
 43
0.0
 10
1041.75
 20
34.95
 10
1041.75
 20
-55.05
  0
LWPOLYLINE
 5
1DB
100
AcDbEntity
  8
16002
100
AcDbPolyline
 90
    2
 70
 0
 43
0.0
 10
1131.75
 20
34.95
 10
1131.75
 20
-55.05
  0
LWPOLYLINE
 5
1DC
100
AcDbEntity
  8
16001
100
AcDbPolyline
 90
    2
 70
 0
 43
0.0
 10
1221.75
 20
34.95
 10
1221.75
 20
-55.05
  0
MTEXT
 5
1DD
100
AcDbEntity
  8
17002
100
AcDbMText
 10
600.75
 20
-32.55
 40
52.92
  1
34
 50
0.0
 71
8
  0
POINT
 5
1DE
100
AcDbEntity
  8
219000
100
AcDbPoint
 10
789.75
 20
-10.05
 50
0.0
  0
POINT
 5
1DF
100
AcDbEntity
  8
511000
100
AcDbPoint
 10
1086.75
 20
-10.05
 50
0.0
  0
LWPOLYLINE
 5
1E0
100
AcDbEntity
  8
16001
100
AcDbPolyline
 90
    2
 70
 0
 43
0.0
 10
456.75
 20
-55.05
 10
1221.75
 20
-55.05
  0
MTEXT
 5
1E1
100
AcDbEntity
  8
17001
100
AcDbMText
 10
501.75
 20
-122.55
 40
58.21
  1
4
 50
0.0
 71
8
  0
LWPOLYLINE
 5
1E2
100
AcDbEntity
  8
16001
100
AcDbPolyline
 90
    2
 70
 0
 43
0.0
 10
456.75
 20
-55.05
 10
456.75
 20
-145.05
  0
LWPOLYLINE
 5
1E3
100
AcDbEntity
  8
16002
100
AcDbPolyline
 90
    2
 70
 0
 43
0.0
 10
546.75
 20
-55.05
 10
546.75
 20
-145.05
  0
LWPOLYLINE
 5
1E4
100
AcDbEntity
  8
16002
100
AcDbPolyline
 90
    2
 70
 0
 43
0.0
 10
654.75
 20
-55.05
 10
654.75
 20
-145.05
  0
LWPOLYLINE
 5
1E5
100
AcDbEntity
  8
16001
100
AcDbPolyline
 90
    2
 70
 0
 43
0.0
 10
744.75
 20
-55.05
 10
744.75
 20
-145.05
  0
LWPOLYLINE
 5
1E6
100
AcDbEntity
  8
16002
100
AcDbPolyline
 90
    2
 70
 0
 43
0.0
 10
834.75
 20
-55.05
 10
834.75
 20
-145.05
  0
LWPOLYLINE
 5
1E7
100
AcDbEntity
  8
16002
100
AcDbPolyline
 90
    2
 70
 0
 43
0.0
 10
924.75
 20
-55.05
 10
924.75
 20
-145.05
  0
LWPOLYLINE
 5
1E8
100
AcDbEntity
  8
16001
100
AcDbPolyline
 90
    2
 70
 0
 43
0.0
 10
1041.75
 20
-55.05
 10
1041.75
 20
-145.05
  0
LWPOLYLINE
 5
1E9
100
AcDbEntity
  8
16002
100
AcDbPolyline
 90
    2
 70
 0
 43
0.0
 10
1131.75
 20
-55.05
 10
1131.75
 20
-145.05
  0
LWPOLYLINE
 5
1EA
100
AcDbEntity
  8
16001
100
AcDbPolyline
 90
    2
 70
 0
 43
0.0
 10
1221.75
 20
-55.05
 10
1221.75
 20
-145.05
  0
MTEXT
 5
1EB
100
AcDbEntity
  8
17002
100
AcDbMText
 10
600.75
 20
-122.55
 40
52.92
  1
32
 50
0.0
 71
8
  0
POINT
 5
1EC
100
AcDbEntity
  8
216000
100
AcDbPoint
 10
789.75
 20
-100.05
 50
0.0
  0
POINT
 5
1ED
100
AcDbEntity
  8
508004
100
AcDbPoint
 10
1086.75
 20
-100.05
 50
0.0
  0
LWPOLYLINE
 5
1EE
100
AcDbEntity
  8
16002
100
AcDbPolyline
 90
    2
 70
 0
 43
0.0
 10
456.75
 20
-145.05
 10
1221.75
 20
-145.05
  0
MTEXT
 5
1EF
100
AcDbEntity
  8
17001
100
AcDbMText
 10
501.75
 20
-212.55
 40
58.21
  1
5
 50
0.0
 71
8
  0
LWPOLYLINE
 5
1F0
100
AcDbEntity
  8
16001
100
AcDbPolyline
 90
    2
 70
 0
 43
0.0
 10
456.75
 20
-145.05
 10
456.75
 20
-235.05
  0
LWPOLYLINE
 5
1F1
100
AcDbEntity
  8
16002
100
AcDbPolyline
 90
    2
 70
 0
 43
0.0
 10
546.75
 20
-145.05
 10
546.75
 20
-235.05
  0
LWPOLYLINE
 5
1F2
100
AcDbEntity
  8
16002
100
AcDbPolyline
 90
    2
 70
 0
 43
0.0
 10
654.75
 20
-145.05
 10
654.75
 20
-235.05
  0
LWPOLYLINE
 5
1F3
100
AcDbEntity
  8
16001
100
AcDbPolyline
 90
    2
 70
 0
 43
0.0
 10
744.75
 20
-145.05
 10
744.75
 20
-235.05
  0
LWPOLYLINE
 5
1F4
100
AcDbEntity
  8
16002
100
AcDbPolyline
 90
    2
 70
 0
 43
0.0
 10
834.75
 20
-145.05
 10
834.75
 20
-235.05
  0
LWPOLYLINE
 5
1F5
100
AcDbEntity
  8
16002
100
AcDbPolyline
 90
    2
 70
 0
 43
0.0
 10
924.75
 20
-145.05
 10
924.75
 20
-235.05
  0
LWPOLYLINE
 5
1F6
100
AcDbEntity
  8
16001
100
AcDbPolyline
 90
    2
 70
 0
 43
0.0
 10
1041.75
 20
-145.05
 10
1041.75
 20
-235.05
  0
LWPOLYLINE
 5
1F7
100
AcDbEntity
  8
16002
100
AcDbPolyline
 90
    2
 70
 0
 43
0.0
 10
1131.75
 20
-145.05
 10
1131.75
 20
-235.05
  0
LWPOLYLINE
 5
1F8
100
AcDbEntity
  8
16001
100
AcDbPolyline
 90
    2
 70
 0
 43
0.0
 10
1221.75
 20
-145.05
 10
1221.75
 20
-235.05
  0
MTEXT
 5
1F9
100
AcDbEntity
  8
17002
100
AcDbMText
 10
600.75
 20
-212.55
 40
52.92
  1
33
 50
0.0
 71
8
  0
POINT
 5
1FA
100
AcDbEntity
  8
260000
100
AcDbPoint
 10
789.75
 20
-190.05
 50
0.0
  0
POINT
 5
1FB
100
AcDbEntity
  8
501007
100
AcDbPoint
 10
1086.75
 20
-190.05
 50
0.0
  0
LWPOLYLINE
 5
1FC
100
AcDbEntity
  8
16002
100
AcDbPolyline
 90
    2
 70
 0
 43
0.0
 10
456.75
 20
-235.05
 10
1221.75
 20
-235.05
  0
MTEXT
 5
1FD
100
AcDbEntity
  8
17001
100
AcDbMText
 10
501.75
 20
-302.55
 40
58.21
  1
6
 50
0.0
 71
8
  0
LWPOLYLINE
 5
1FE
100
AcDbEntity
  8
16001
100
AcDbPolyline
 90
    2
 70
 0
 43
0.0
 10
456.75
 20
-235.05
 10
456.75
 20
-325.05
  0
LWPOLYLINE
 5
1FF
100
AcDbEntity
  8
16002
100
AcDbPolyline
 90
    2
 70
 0
 43
0.0
 10
546.75
 20
-235.05
 10
546.75
 20
-325.05
  0
LWPOLYLINE
 5
200
100
AcDbEntity
  8
16002
100
AcDbPolyline
 90
    2
 70
 0
 43
0.0
 10
654.75
 20
-235.05
 10
654.75
 20
-325.05
  0
LWPOLYLINE
 5
201
100
AcDbEntity
  8
16001
100
AcDbPolyline
 90
    2
 70
 0
 43
0.0
 10
744.75
 20
-235.05
 10
744.75
 20
-325.05
  0
LWPOLYLINE
 5
202
100
AcDbEntity
  8
16002
100
AcDbPolyline
 90
    2
 70
 0
 43
0.0
 10
834.75
 20
-235.05
 10
834.75
 20
-325.05
  0
LWPOLYLINE
 5
203
100
AcDbEntity
  8
16002
100
AcDbPolyline
 90
    2
 70
 0
 43
0.0
 10
924.75
 20
-235.05
 10
924.75
 20
-325.05
  0
LWPOLYLINE
 5
204
100
AcDbEntity
  8
16001
100
AcDbPolyline
 90
    2
 70
 0
 43
0.0
 10
1041.75
 20
-235.05
 10
1041.75
 20
-325.05
  0
LWPOLYLINE
 5
205
100
AcDbEntity
  8
16002
100
AcDbPolyline
 90
    2
 70
 0
 43
0.0
 10
1131.75
 20
-235.05
 10
1131.75
 20
-325.05
  0
LWPOLYLINE
 5
206
100
AcDbEntity
  8
16001
100
AcDbPolyline
 90
    2
 70
 0
 43
0.0
 10
1221.75
 20
-235.05
 10
1221.75
 20
-325.05
  0
MTEXT
 5
207
100
AcDbEntity
  8
17002
100
AcDbMText
 10
600.75
 20
-302.55
 40
52.92
  1
36
 50
0.0
 71
8
  0
POINT
 5
208
100
AcDbEntity
  8
202000
100
AcDbPoint
 10
789.75
 20
-280.05
 50
0.0
  0
POINT
 5
209
100
AcDbEntity
  8
505005
100
AcDbPoint
 10
1086.75
 20
-280.05
 50
0.0
  0
POINT
 5
20A
100
AcDbEntity
  8
602000
100
AcDbPoint
 10
1176.75
 20
-280.05
 50
0.0
  0
LWPOLYLINE
 5
20B
100
AcDbEntity
  8
16001
100
AcDbPolyline
 90
    2
 70
 0
 43
0.0
 10
456.75
 20
-325.05
 10
1221.75
 20
-325.05
  0
LWPOLYLINE
 5
20C
100
AcDbEntity
  8
16001
100
AcDbPolyline
 90
    2
 70
 0
 43
0.0
 10
456.75
 20
-325.05
 10
456.75
 20
-415.05
  0
LWPOLYLINE
 5
20D
100
AcDbEntity
  8
16001
100
AcDbPolyline
 90
    2
 70
 0
 43
0.0
 10
1221.75
 20
-325.05
 10
1221.75
 20
-415.05
  0
POINT
 5
20E
100
AcDbEntity
  8
15002
100
AcDbPoint
 10
501.75
 20
-370.05
 50
0.0
  0
POINT
 5
20F
100
AcDbEntity
  8
14003
100
AcDbPoint
 10
555.75
 20
-370.05
 50
0.0
  0
POINT
 5
210
100
AcDbEntity
  8
15004
100
AcDbPoint
 10
1122.75
 20
-370.05
 50
0.0
  0
POINT
 5
211
100
AcDbEntity
  8
15003
100
AcDbPoint
 10
1176.75
 20
-370.05
 50
0.0
  0
MTEXT
 5
212
100
AcDbEntity
  8
17004
100
AcDbMText
 10
834.75
 20
-392.55
 40
52.92
  1
220 m
 50
0.0
 71
8
  0
LWPOLYLINE
 5
213
100
AcDbEntity
  8
16001
100
AcDbPolyline
 90
    2
 70
 0
 43
0.0
 10
456.75
 20
-415.05
 10
1221.75
 20
-415.05
  0
MTEXT
 5
214
100
AcDbEntity
  8
17002
100
AcDbMText
 10
839.25
 20
-478.05
 40
52.92
  1
OCAD 10 Trial
 50
0.0
 71
8
  0
POINT
 5
215
100
AcDbEntity
  8
701000
100
AcDbPoint
 10
-247.20
 20
370.95
 50
-93.7
  0
LWPOLYLINE
 5
216
100
AcDbEntity
  8
16001
100
AcDbPolyline
 90
    2
 70
 0
 43
0.0
 10
456.75
 20
394.95
 10
1221.75
 20
394.95
  0
LWPOLYLINE
 5
217
100
AcDbEntity
  8
16001
100
AcDbPolyline
 90
    2
 70
 0
 43
0.0
 10
456.75
 20
394.95
 10
1221.75
 20
394.95
  0
MTEXT
 5
218
100
AcDbEntity
  8
17003
100
AcDbMText
 10
600.75
 20
331.95
 40
52.92
  1
A
 50
0.0
 71
8
  0
MTEXT
 5
219
100
AcDbEntity
  8
17003
100
AcDbMText
 10
893.25
 20
331.95
 40
52.92
  1
1.8 km
 50
0.0
 71
8
  0
LWPOLYLINE
 5
21A
100
AcDbEntity
  8
16001
100
AcDbPolyline
 90
    2
 70
 0
 43
0.0
 10
456.75
 20
394.95
 10
456.75
 20
304.95
  0
LWPOLYLINE
 5
21B
100
AcDbEntity
  8
16001
100
AcDbPolyline
 90
    2
 70
 0
 43
0.0
 10
744.75
 20
394.95
 10
744.75
 20
304.95
  0
LWPOLYLINE
 5
21C
100
AcDbEntity
  8
16001
100
AcDbPolyline
 90
    2
 70
 0
 43
0.0
 10
1041.75
 20
394.95
 10
1041.75
 20
304.95
  0
LWPOLYLINE
 5
21D
100
AcDbEntity
  8
16001
100
AcDbPolyline
 90
    2
 70
 0
 43
0.0
 10
1221.75
 20
394.95
 10
1221.75
 20
304.95
  0
LWPOLYLINE
 5
21E
100
AcDbEntity
  8
16001
100
AcDbPolyline
 90
    2
 70
 0
 43
0.0
 10
456.75
 20
304.95
 10
1221.75
 20
304.95
  0
LWPOLYLINE
 5
21F
100
AcDbEntity
  8
16001
100
AcDbPolyline
 90
    2
 70
 0
 43
0.0
 10
456.75
 20
304.95
 10
1221.75
 20
304.95
  0
LWPOLYLINE
 5
220
100
AcDbEntity
  8
16001
100
AcDbPolyline
 90
    2
 70
 0
 43
0.0
 10
456.75
 20
304.95
 10
456.75
 20
214.95
  0
LWPOLYLINE
 5
221
100
AcDbEntity
  8
16002
100
AcDbPolyline
 90
    2
 70
 0
 43
0.0
 10
546.75
 20
304.95
 10
546.75
 20
214.95
  0
LWPOLYLINE
 5
222
100
AcDbEntity
  8
16002
100
AcDbPolyline
 90
    2
 70
 0
 43
0.0
 10
654.75
 20
304.95
 10
654.75
 20
214.95
  0
LWPOLYLINE
 5
223
100
AcDbEntity
  8
16001
100
AcDbPolyline
 90
    2
 70
 0
 43
0.0
 10
744.75
 20
304.95
 10
744.75
 20
214.95
  0
LWPOLYLINE
 5
224
100
AcDbEntity
  8
16002
100
AcDbPolyline
 90
    2
 70
 0
 43
0.0
 10
834.75
 20
304.95
 10
834.75
 20
214.95
  0
LWPOLYLINE
 5
225
100
AcDbEntity
  8
16002
100
AcDbPolyline
 90
    2
 70
 0
 43
0.0
 10
924.75
 20
304.95
 10
924.75
 20
214.95
  0
LWPOLYLINE
 5
226
100
AcDbEntity
  8
16001
100
AcDbPolyline
 90
    2
 70
 0
 43
0.0
 10
1041.75
 20
304.95
 10
1041.75
 20
214.95
  0
LWPOLYLINE
 5
227
100
AcDbEntity
  8
16002
100
AcDbPolyline
 90
    2
 70
 0
 43
0.0
 10
1131.75
 20
304.95
 10
1131.75
 20
214.95
  0
LWPOLYLINE
 5
228
100
AcDbEntity
  8
16001
100
AcDbPolyline
 90
    2
 70
 0
 43
0.0
 10
1221.75
 20
304.95
 10
1221.75
 20
214.95
  0
POINT
 5
229
100
AcDbEntity
  8
15001
100
AcDbPoint
 10
501.75
 20
259.95
 50
0.0
  0
LWPOLYLINE
 5
22A
100
AcDbEntity
  8
16001
100
AcDbPolyline
 90
    2
 70
 0
 43
0.0
 10
456.75
 20
214.95
 10
1221.75
 20
214.95
  0
MTEXT
 5
22B
100
AcDbEntity
  8
17001
100
AcDbMText
 10
501.75
 20
147.45
 40
58.21
  1
1
 50
0.0
 71
8
  0
LWPOLYLINE
 5
22C
100
AcDbEntity
  8
16001
100
AcDbPolyline
 90
    2
 70
 0
 43
0.0
 10
456.75
 20
214.95
 10
456.75
 20
124.95
  0
LWPOLYLINE
 5
22D
100
AcDbEntity
  8
16002
100
AcDbPolyline
 90
    2
 70
 0
 43
0.0
 10
546.75
 20
214.95
 10
546.75
 20
124.95
  0
LWPOLYLINE
 5
22E
100
AcDbEntity
  8
16002
100
AcDbPolyline
 90
    2
 70
 0
 43
0.0
 10
654.75
 20
214.95
 10
654.75
 20
124.95
  0
LWPOLYLINE
 5
22F
100
AcDbEntity
  8
16001
100
AcDbPolyline
 90
    2
 70
 0
 43
0.0
 10
744.75
 20
214.95
 10
744.75
 20
124.95
  0
LWPOLYLINE
 5
230
100
AcDbEntity
  8
16002
100
AcDbPolyline
 90
    2
 70
 0
 43
0.0
 10
834.75
 20
214.95
 10
834.75
 20
124.95
  0
LWPOLYLINE
 5
231
100
AcDbEntity
  8
16002
100
AcDbPolyline
 90
    2
 70
 0
 43
0.0
 10
924.75
 20
214.95
 10
924.75
 20
124.95
  0
LWPOLYLINE
 5
232
100
AcDbEntity
  8
16001
100
AcDbPolyline
 90
    2
 70
 0
 43
0.0
 10
1041.75
 20
214.95
 10
1041.75
 20
124.95
  0
LWPOLYLINE
 5
233
100
AcDbEntity
  8
16002
100
AcDbPolyline
 90
    2
 70
 0
 43
0.0
 10
1131.75
 20
214.95
 10
1131.75
 20
124.95
  0
LWPOLYLINE
 5
234
100
AcDbEntity
  8
16001
100
AcDbPolyline
 90
    2
 70
 0
 43
0.0
 10
1221.75
 20
214.95
 10
1221.75
 20
124.95
  0
MTEXT
 5
235
100
AcDbEntity
  8
17002
100
AcDbMText
 10
600.75
 20
147.45
 40
52.92
  1
31
 50
0.0
 71
8
  0
POINT
 5
236
100
AcDbEntity
  8
218000
100
AcDbPoint
 10
789.75
 20
169.95
 50
0.0
  0
POINT
 5
237
100
AcDbEntity
  8
501002
100
AcDbPoint
 10
1086.75
 20
169.95
 50
0.0
  0
LWPOLYLINE
 5
238
100
AcDbEntity
  8
16002
100
AcDbPolyline
 90
    2
 70
 0
 43
0.0
 10
456.75
 20
124.95
 10
1221.75
 20
124.95
  0
MTEXT
 5
239
100
AcDbEntity
  8
17001
100
AcDbMText
 10
501.75
 20
57.45
 40
58.21
  1
2
 50
0.0
 71
8
  0
LWPOLYLINE
 5
23A
100
AcDbEntity
  8
16001
100
AcDbPolyline
 90
    2
 70
 0
 43
0.0
 10
456.75
 20
124.95
 10
456.75
 20
34.95
  0
LWPOLYLINE
 5
23B
100
AcDbEntity
  8
16002
100
AcDbPolyline
 90
    2
 70
 0
 43
0.0
 10
546.75
 20
124.95
 10
546.75
 20
34.95
  0
LWPOLYLINE
 5
23C
100
AcDbEntity
  8
16002
100
AcDbPolyline
 90
    2
 70
 0
 43
0.0
 10
654.75
 20
124.95
 10
654.75
 20
34.95
  0
LWPOLYLINE
 5
23D
100
AcDbEntity
  8
16001
100
AcDbPolyline
 90
    2
 70
 0
 43
0.0
 10
744.75
 20
124.95
 10
744.75
 20
34.95
  0
LWPOLYLINE
 5
23E
100
AcDbEntity
  8
16002
100
AcDbPolyline
 90
    2
 70
 0
 43
0.0
 10
834.75
 20
124.95
 10
834.75
 20
34.95
  0
LWPOLYLINE
 5
23F
100
AcDbEntity
  8
16002
100
AcDbPolyline
 90
    2
 70
 0
 43
0.0
 10
924.75
 20
124.95
 10
924.75
 20
34.95
  0
LWPOLYLINE
 5
240
100
AcDbEntity
  8
16001
100
AcDbPolyline
 90
    2
 70
 0
 43
0.0
 10
1041.75
 20
124.95
 10
1041.75
 20
34.95
  0
LWPOLYLINE
 5
241
100
AcDbEntity
  8
16002
100
AcDbPolyline
 90
    2
 70
 0
 43
0.0
 10
1131.75
 20
124.95
 10
1131.75
 20
34.95
  0
LWPOLYLINE
 5
242
100
AcDbEntity
  8
16001
100
AcDbPolyline
 90
    2
 70
 0
 43
0.0
 10
1221.75
 20
124.95
 10
1221.75
 20
34.95
  0
MTEXT
 5
243
100
AcDbEntity
  8
17002
100
AcDbMText
 10
600.75
 20
57.45
 40
52.92
  1
35
 50
0.0
 71
8
  0
POINT
 5
244
100
AcDbEntity
  8
241000
100
AcDbPoint
 10
789.75
 20
79.95
 50
0.0
  0
POINT
 5
245
100
AcDbEntity
  8
508005
100
AcDbPoint
 10
1086.75
 20
79.95
 50
0.0
  0
LWPOLYLINE
 5
246
100
AcDbEntity
  8
16002
100
AcDbPolyline
 90
    2
 70
 0
 43
0.0
 10
456.75
 20
34.95
 10
1221.75
 20
34.95
  0
MTEXT
 5
247
100
AcDbEntity
  8
17001
100
AcDbMText
 10
501.75
 20
-32.55
 40
58.21
  1
3
 50
0.0
 71
8
  0
LWPOLYLINE
 5
248
100
AcDbEntity
  8
16001
100
AcDbPolyline
 90
    2
 70
 0
 43
0.0
 10
456.75
 20
34.95
 10
456.75
 20
-55.05
  0
LWPOLYLINE
 5
249
100
AcDbEntity
  8
16002
100
AcDbPolyline
 90
    2
 70
 0
 43
0.0
 10
546.75
 20
34.95
 10
546.75
 20
-55.05
  0
LWPOLYLINE
 5
24A
100
AcDbEntity
  8
16002
100
AcDbPolyline
 90
    2
 70
 0
 43
0.0
 10
654.75
 20
34.95
 10
654.75
 20
-55.05
  0
LWPOLYLINE
 5
24B
100
AcDbEntity
  8
16001
100
AcDbPolyline
 90
    2
 70
 0
 43
0.0
 10
744.75
 20
34.95
 10
744.75
 20
-55.05
  0
LWPOLYLINE
 5
24C
100
AcDbEntity
  8
16002
100
AcDbPolyline
 90
    2
 70
 0
 43
0.0
 10
834.75
 20
34.95
 10
834.75
 20
-55.05
  0
LWPOLYLINE
 5
24D
100
AcDbEntity
  8
16002
100
AcDbPolyline
 90
    2
 70
 0
 43
0.0
 10
924.75
 20
34.95
 10
924.75
 20
-55.05
  0
LWPOLYLINE
 5
24E
100
AcDbEntity
  8
16001
100
AcDbPolyline
 90
    2
 70
 0
 43
0.0
 10
1041.75
 20
34.95
 10
1041.75
 20
-55.05
  0
LWPOLYLINE
 5
24F
100
AcDbEntity
  8
16002
100
AcDbPolyline
 90
    2
 70
 0
 43
0.0
 10
1131.75
 20
34.95
 10
1131.75
 20
-55.05
  0
LWPOLYLINE
 5
250
100
AcDbEntity
  8
16001
100
AcDbPolyline
 90
    2
 70
 0
 43
0.0
 10
1221.75
 20
34.95
 10
1221.75
 20
-55.05
  0
MTEXT
 5
251
100
AcDbEntity
  8
17002
100
AcDbMText
 10
600.75
 20
-32.55
 40
52.92
  1
34
 50
0.0
 71
8
  0
POINT
 5
252
100
AcDbEntity
  8
219000
100
AcDbPoint
 10
789.75
 20
-10.05
 50
0.0
  0
POINT
 5
253
100
AcDbEntity
  8
511000
100
AcDbPoint
 10
1086.75
 20
-10.05
 50
0.0
  0
LWPOLYLINE
 5
254
100
AcDbEntity
  8
16001
100
AcDbPolyline
 90
    2
 70
 0
 43
0.0
 10
456.75
 20
-55.05
 10
1221.75
 20
-55.05
  0
MTEXT
 5
255
100
AcDbEntity
  8
17001
100
AcDbMText
 10
501.75
 20
-122.55
 40
58.21
  1
4
 50
0.0
 71
8
  0
LWPOLYLINE
 5
256
100
AcDbEntity
  8
16001
100
AcDbPolyline
 90
    2
 70
 0
 43
0.0
 10
456.75
 20
-55.05
 10
456.75
 20
-145.05
  0
LWPOLYLINE
 5
257
100
AcDbEntity
  8
16002
100
AcDbPolyline
 90
    2
 70
 0
 43
0.0
 10
546.75
 20
-55.05
 10
546.75
 20
-145.05
  0
LWPOLYLINE
 5
258
100
AcDbEntity
  8
16002
100
AcDbPolyline
 90
    2
 70
 0
 43
0.0
 10
654.75
 20
-55.05
 10
654.75
 20
-145.05
  0
LWPOLYLINE
 5
259
100
AcDbEntity
  8
16001
100
AcDbPolyline
 90
    2
 70
 0
 43
0.0
 10
744.75
 20
-55.05
 10
744.75
 20
-145.05
  0
LWPOLYLINE
 5
25A
100
AcDbEntity
  8
16002
100
AcDbPolyline
 90
    2
 70
 0
 43
0.0
 10
834.75
 20
-55.05
 10
834.75
 20
-145.05
  0
LWPOLYLINE
 5
25B
100
AcDbEntity
  8
16002
100
AcDbPolyline
 90
    2
 70
 0
 43
0.0
 10
924.75
 20
-55.05
 10
924.75
 20
-145.05
  0
LWPOLYLINE
 5
25C
100
AcDbEntity
  8
16001
100
AcDbPolyline
 90
    2
 70
 0
 43
0.0
 10
1041.75
 20
-55.05
 10
1041.75
 20
-145.05
  0
LWPOLYLINE
 5
25D
100
AcDbEntity
  8
16002
100
AcDbPolyline
 90
    2
 70
 0
 43
0.0
 10
1131.75
 20
-55.05
 10
1131.75
 20
-145.05
  0
LWPOLYLINE
 5
25E
100
AcDbEntity
  8
16001
100
AcDbPolyline
 90
    2
 70
 0
 43
0.0
 10
1221.75
 20
-55.05
 10
1221.75
 20
-145.05
  0
MTEXT
 5
25F
100
AcDbEntity
  8
17002
100
AcDbMText
 10
600.75
 20
-122.55
 40
52.92
  1
32
 50
0.0
 71
8
  0
POINT
 5
260
100
AcDbEntity
  8
216000
100
AcDbPoint
 10
789.75
 20
-100.05
 50
0.0
  0
POINT
 5
261
100
AcDbEntity
  8
508004
100
AcDbPoint
 10
1086.75
 20
-100.05
 50
0.0
  0
LWPOLYLINE
 5
262
100
AcDbEntity
  8
16002
100
AcDbPolyline
 90
    2
 70
 0
 43
0.0
 10
456.75
 20
-145.05
 10
1221.75
 20
-145.05
  0
MTEXT
 5
263
100
AcDbEntity
  8
17001
100
AcDbMText
 10
501.75
 20
-212.55
 40
58.21
  1
5
 50
0.0
 71
8
  0
LWPOLYLINE
 5
264
100
AcDbEntity
  8
16001
100
AcDbPolyline
 90
    2
 70
 0
 43
0.0
 10
456.75
 20
-145.05
 10
456.75
 20
-235.05
  0
LWPOLYLINE
 5
265
100
AcDbEntity
  8
16002
100
AcDbPolyline
 90
    2
 70
 0
 43
0.0
 10
546.75
 20
-145.05
 10
546.75
 20
-235.05
  0
LWPOLYLINE
 5
266
100
AcDbEntity
  8
16002
100
AcDbPolyline
 90
    2
 70
 0
 43
0.0
 10
654.75
 20
-145.05
 10
654.75
 20
-235.05
  0
LWPOLYLINE
 5
267
100
AcDbEntity
  8
16001
100
AcDbPolyline
 90
    2
 70
 0
 43
0.0
 10
744.75
 20
-145.05
 10
744.75
 20
-235.05
  0
LWPOLYLINE
 5
268
100
AcDbEntity
  8
16002
100
AcDbPolyline
 90
    2
 70
 0
 43
0.0
 10
834.75
 20
-145.05
 10
834.75
 20
-235.05
  0
LWPOLYLINE
 5
269
100
AcDbEntity
  8
16002
100
AcDbPolyline
 90
    2
 70
 0
 43
0.0
 10
924.75
 20
-145.05
 10
924.75
 20
-235.05
  0
LWPOLYLINE
 5
26A
100
AcDbEntity
  8
16001
100
AcDbPolyline
 90
    2
 70
 0
 43
0.0
 10
1041.75
 20
-145.05
 10
1041.75
 20
-235.05
  0
LWPOLYLINE
 5
26B
100
AcDbEntity
  8
16002
100
AcDbPolyline
 90
    2
 70
 0
 43
0.0
 10
1131.75
 20
-145.05
 10
1131.75
 20
-235.05
  0
LWPOLYLINE
 5
26C
100
AcDbEntity
  8
16001
100
AcDbPolyline
 90
    2
 70
 0
 43
0.0
 10
1221.75
 20
-145.05
 10
1221.75
 20
-235.05
  0
MTEXT
 5
26D
100
AcDbEntity
  8
17002
100
AcDbMText
 10
600.75
 20
-212.55
 40
52.92
  1
33
 50
0.0
 71
8
  0
POINT
 5
26E
100
AcDbEntity
  8
260000
100
AcDbPoint
 10
789.75
 20
-190.05
 50
0.0
  0
POINT
 5
26F
100
AcDbEntity
  8
501007
100
AcDbPoint
 10
1086.75
 20
-190.05
 50
0.0
  0
LWPOLYLINE
 5
270
100
AcDbEntity
  8
16002
100
AcDbPolyline
 90
    2
 70
 0
 43
0.0
 10
456.75
 20
-235.05
 10
1221.75
 20
-235.05
  0
MTEXT
 5
271
100
AcDbEntity
  8
17001
100
AcDbMText
 10
501.75
 20
-302.55
 40
58.21
  1
6
 50
0.0
 71
8
  0
LWPOLYLINE
 5
272
100
AcDbEntity
  8
16001
100
AcDbPolyline
 90
    2
 70
 0
 43
0.0
 10
456.75
 20
-235.05
 10
456.75
 20
-325.05
  0
LWPOLYLINE
 5
273
100
AcDbEntity
  8
16002
100
AcDbPolyline
 90
    2
 70
 0
 43
0.0
 10
546.75
 20
-235.05
 10
546.75
 20
-325.05
  0
LWPOLYLINE
 5
274
100
AcDbEntity
  8
16002
100
AcDbPolyline
 90
    2
 70
 0
 43
0.0
 10
654.75
 20
-235.05
 10
654.75
 20
-325.05
  0
LWPOLYLINE
 5
275
100
AcDbEntity
  8
16001
100
AcDbPolyline
 90
    2
 70
 0
 43
0.0
 10
744.75
 20
-235.05
 10
744.75
 20
-325.05
  0
LWPOLYLINE
 5
276
100
AcDbEntity
  8
16002
100
AcDbPolyline
 90
    2
 70
 0
 43
0.0
 10
834.75
 20
-235.05
 10
834.75
 20
-325.05
  0
LWPOLYLINE
 5
277
100
AcDbEntity
  8
16002
100
AcDbPolyline
 90
    2
 70
 0
 43
0.0
 10
924.75
 20
-235.05
 10
924.75
 20
-325.05
  0
LWPOLYLINE
 5
278
100
AcDbEntity
  8
16001
100
AcDbPolyline
 90
    2
 70
 0
 43
0.0
 10
1041.75
 20
-235.05
 10
1041.75
 20
-325.05
  0
LWPOLYLINE
 5
279
100
AcDbEntity
  8
16002
100
AcDbPolyline
 90
    2
 70
 0
 43
0.0
 10
1131.75
 20
-235.05
 10
1131.75
 20
-325.05
  0
LWPOLYLINE
 5
27A
100
AcDbEntity
  8
16001
100
AcDbPolyline
 90
    2
 70
 0
 43
0.0
 10
1221.75
 20
-235.05
 10
1221.75
 20
-325.05
  0
MTEXT
 5
27B
100
AcDbEntity
  8
17002
100
AcDbMText
 10
600.75
 20
-302.55
 40
52.92
  1
36
 50
0.0
 71
8
  0
POINT
 5
27C
100
AcDbEntity
  8
202000
100
AcDbPoint
 10
789.75
 20
-280.05
 50
0.0
  0
POINT
 5
27D
100
AcDbEntity
  8
505005
100
AcDbPoint
 10
1086.75
 20
-280.05
 50
0.0
  0
POINT
 5
27E
100
AcDbEntity
  8
602000
100
AcDbPoint
 10
1176.75
 20
-280.05
 50
0.0
  0
LWPOLYLINE
 5
27F
100
AcDbEntity
  8
16001
100
AcDbPolyline
 90
    2
 70
 0
 43
0.0
 10
456.75
 20
-325.05
 10
1221.75
 20
-325.05
  0
LWPOLYLINE
 5
280
100
AcDbEntity
  8
16001
100
AcDbPolyline
 90
    2
 70
 0
 43
0.0
 10
456.75
 20
-325.05
 10
456.75
 20
-415.05
  0
LWPOLYLINE
 5
281
100
AcDbEntity
  8
16001
100
AcDbPolyline
 90
    2
 70
 0
 43
0.0
 10
1221.75
 20
-325.05
 10
1221.75
 20
-415.05
  0
POINT
 5
282
100
AcDbEntity
  8
15002
100
AcDbPoint
 10
501.75
 20
-370.05
 50
0.0
  0
POINT
 5
283
100
AcDbEntity
  8
14003
100
AcDbPoint
 10
555.75
 20
-370.05
 50
0.0
  0
POINT
 5
284
100
AcDbEntity
  8
15004
100
AcDbPoint
 10
1122.75
 20
-370.05
 50
0.0
  0
POINT
 5
285
100
AcDbEntity
  8
15003
100
AcDbPoint
 10
1176.75
 20
-370.05
 50
0.0
  0
MTEXT
 5
286
100
AcDbEntity
  8
17004
100
AcDbMText
 10
834.75
 20
-392.55
 40
52.92
  1
220 m
 50
0.0
 71
8
  0
LWPOLYLINE
 5
287
100
AcDbEntity
  8
16001
100
AcDbPolyline
 90
    2
 70
 0
 43
0.0
 10
456.75
 20
-415.05
 10
1221.75
 20
-415.05
  0
MTEXT
 5
288
100
AcDbEntity
  8
17002
100
AcDbMText
 10
839.25
 20
-478.05
 40
52.92
  1
OCAD 10 Trial
 50
0.0
 71
8
  0
POINT
 5
289
100
AcDbEntity
  8
701000
100
AcDbPoint
 10
-247.20
 20
370.95
 50
-93.7
  0
LWPOLYLINE
 5
28A
100
AcDbEntity
  8
16001
100
AcDbPolyline
 90
    2
 70
 0
 43
0.0
 10
456.75
 20
394.95
 10
1221.75
 20
394.95
  0
LWPOLYLINE
 5
28B
100
AcDbEntity
  8
16001
100
AcDbPolyline
 90
    2
 70
 0
 43
0.0
 10
456.75
 20
394.95
 10
1221.75
 20
394.95
  0
MTEXT
 5
28C
100
AcDbEntity
  8
17003
100
AcDbMText
 10
600.75
 20
331.95
 40
52.92
  1
A
 50
0.0
 71
8
  0
MTEXT
 5
28D
100
AcDbEntity
  8
17003
100
AcDbMText
 10
893.25
 20
331.95
 40
52.92
  1
1.8 km
 50
0.0
 71
8
  0
LWPOLYLINE
 5
28E
100
AcDbEntity
  8
16001
100
AcDbPolyline
 90
    2
 70
 0
 43
0.0
 10
456.75
 20
394.95
 10
456.75
 20
304.95
  0
LWPOLYLINE
 5
28F
100
AcDbEntity
  8
16001
100
AcDbPolyline
 90
    2
 70
 0
 43
0.0
 10
744.75
 20
394.95
 10
744.75
 20
304.95
  0
LWPOLYLINE
 5
290
100
AcDbEntity
  8
16001
100
AcDbPolyline
 90
    2
 70
 0
 43
0.0
 10
1041.75
 20
394.95
 10
1041.75
 20
304.95
  0
LWPOLYLINE
 5
291
100
AcDbEntity
  8
16001
100
AcDbPolyline
 90
    2
 70
 0
 43
0.0
 10
1221.75
 20
394.95
 10
1221.75
 20
304.95
  0
LWPOLYLINE
 5
292
100
AcDbEntity
  8
16001
100
AcDbPolyline
 90
    2
 70
 0
 43
0.0
 10
456.75
 20
304.95
 10
1221.75
 20
304.95
  0
LWPOLYLINE
 5
293
100
AcDbEntity
  8
16001
100
AcDbPolyline
 90
    2
 70
 0
 43
0.0
 10
456.75
 20
304.95
 10
1221.75
 20
304.95
  0
LWPOLYLINE
 5
294
100
AcDbEntity
  8
16001
100
AcDbPolyline
 90
    2
 70
 0
 43
0.0
 10
456.75
 20
304.95
 10
456.75
 20
214.95
  0
LWPOLYLINE
 5
295
100
AcDbEntity
  8
16002
100
AcDbPolyline
 90
    2
 70
 0
 43
0.0
 10
546.75
 20
304.95
 10
546.75
 20
214.95
  0
LWPOLYLINE
 5
296
100
AcDbEntity
  8
16002
100
AcDbPolyline
 90
    2
 70
 0
 43
0.0
 10
654.75
 20
304.95
 10
654.75
 20
214.95
  0
LWPOLYLINE
 5
297
100
AcDbEntity
  8
16001
100
AcDbPolyline
 90
    2
 70
 0
 43
0.0
 10
744.75
 20
304.95
 10
744.75
 20
214.95
  0
LWPOLYLINE
 5
298
100
AcDbEntity
  8
16002
100
AcDbPolyline
 90
    2
 70
 0
 43
0.0
 10
834.75
 20
304.95
 10
834.75
 20
214.95
  0
LWPOLYLINE
 5
299
100
AcDbEntity
  8
16002
100
AcDbPolyline
 90
    2
 70
 0
 43
0.0
 10
924.75
 20
304.95
 10
924.75
 20
214.95
  0
LWPOLYLINE
 5
29A
100
AcDbEntity
  8
16001
100
AcDbPolyline
 90
    2
 70
 0
 43
0.0
 10
1041.75
 20
304.95
 10
1041.75
 20
214.95
  0
LWPOLYLINE
 5
29B
100
AcDbEntity
  8
16002
100
AcDbPolyline
 90
    2
 70
 0
 43
0.0
 10
1131.75
 20
304.95
 10
1131.75
 20
214.95
  0
LWPOLYLINE
 5
29C
100
AcDbEntity
  8
16001
100
AcDbPolyline
 90
    2
 70
 0
 43
0.0
 10
1221.75
 20
304.95
 10
1221.75
 20
214.95
  0
POINT
 5
29D
100
AcDbEntity
  8
15001
100
AcDbPoint
 10
501.75
 20
259.95
 50
0.0
  0
LWPOLYLINE
 5
29E
100
AcDbEntity
  8
16001
100
AcDbPolyline
 90
    2
 70
 0
 43
0.0
 10
456.75
 20
214.95
 10
1221.75
 20
214.95
  0
MTEXT
 5
29F
100
AcDbEntity
  8
17001
100
AcDbMText
 10
501.75
 20
147.45
 40
58.21
  1
1
 50
0.0
 71
8
  0
LWPOLYLINE
 5
2A0
100
AcDbEntity
  8
16001
100
AcDbPolyline
 90
    2
 70
 0
 43
0.0
 10
456.75
 20
214.95
 10
456.75
 20
124.95
  0
LWPOLYLINE
 5
2A1
100
AcDbEntity
  8
16002
100
AcDbPolyline
 90
    2
 70
 0
 43
0.0
 10
546.75
 20
214.95
 10
546.75
 20
124.95
  0
LWPOLYLINE
 5
2A2
100
AcDbEntity
  8
16002
100
AcDbPolyline
 90
    2
 70
 0
 43
0.0
 10
654.75
 20
214.95
 10
654.75
 20
124.95
  0
LWPOLYLINE
 5
2A3
100
AcDbEntity
  8
16001
100
AcDbPolyline
 90
    2
 70
 0
 43
0.0
 10
744.75
 20
214.95
 10
744.75
 20
124.95
  0
LWPOLYLINE
 5
2A4
100
AcDbEntity
  8
16002
100
AcDbPolyline
 90
    2
 70
 0
 43
0.0
 10
834.75
 20
214.95
 10
834.75
 20
124.95
  0
LWPOLYLINE
 5
2A5
100
AcDbEntity
  8
16002
100
AcDbPolyline
 90
    2
 70
 0
 43
0.0
 10
924.75
 20
214.95
 10
924.75
 20
124.95
  0
LWPOLYLINE
 5
2A6
100
AcDbEntity
  8
16001
100
AcDbPolyline
 90
    2
 70
 0
 43
0.0
 10
1041.75
 20
214.95
 10
1041.75
 20
124.95
  0
LWPOLYLINE
 5
2A7
100
AcDbEntity
  8
16002
100
AcDbPolyline
 90
    2
 70
 0
 43
0.0
 10
1131.75
 20
214.95
 10
1131.75
 20
124.95
  0
LWPOLYLINE
 5
2A8
100
AcDbEntity
  8
16001
100
AcDbPolyline
 90
    2
 70
 0
 43
0.0
 10
1221.75
 20
214.95
 10
1221.75
 20
124.95
  0
MTEXT
 5
2A9
100
AcDbEntity
  8
17002
100
AcDbMText
 10
600.75
 20
147.45
 40
52.92
  1
31
 50
0.0
 71
8
  0
POINT
 5
2AA
100
AcDbEntity
  8
218000
100
AcDbPoint
 10
789.75
 20
169.95
 50
0.0
  0
POINT
 5
2AB
100
AcDbEntity
  8
501002
100
AcDbPoint
 10
1086.75
 20
169.95
 50
0.0
  0
LWPOLYLINE
 5
2AC
100
AcDbEntity
  8
16002
100
AcDbPolyline
 90
    2
 70
 0
 43
0.0
 10
456.75
 20
124.95
 10
1221.75
 20
124.95
  0
MTEXT
 5
2AD
100
AcDbEntity
  8
17001
100
AcDbMText
 10
501.75
 20
57.45
 40
58.21
  1
2
 50
0.0
 71
8
  0
LWPOLYLINE
 5
2AE
100
AcDbEntity
  8
16001
100
AcDbPolyline
 90
    2
 70
 0
 43
0.0
 10
456.75
 20
124.95
 10
456.75
 20
34.95
  0
LWPOLYLINE
 5
2AF
100
AcDbEntity
  8
16002
100
AcDbPolyline
 90
    2
 70
 0
 43
0.0
 10
546.75
 20
124.95
 10
546.75
 20
34.95
  0
LWPOLYLINE
 5
2B0
100
AcDbEntity
  8
16002
100
AcDbPolyline
 90
    2
 70
 0
 43
0.0
 10
654.75
 20
124.95
 10
654.75
 20
34.95
  0
LWPOLYLINE
 5
2B1
100
AcDbEntity
  8
16001
100
AcDbPolyline
 90
    2
 70
 0
 43
0.0
 10
744.75
 20
124.95
 10
744.75
 20
34.95
  0
LWPOLYLINE
 5
2B2
100
AcDbEntity
  8
16002
100
AcDbPolyline
 90
    2
 70
 0
 43
0.0
 10
834.75
 20
124.95
 10
834.75
 20
34.95
  0
LWPOLYLINE
 5
2B3
100
AcDbEntity
  8
16002
100
AcDbPolyline
 90
    2
 70
 0
 43
0.0
 10
924.75
 20
124.95
 10
924.75
 20
34.95
  0
LWPOLYLINE
 5
2B4
100
AcDbEntity
  8
16001
100
AcDbPolyline
 90
    2
 70
 0
 43
0.0
 10
1041.75
 20
124.95
 10
1041.75
 20
34.95
  0
LWPOLYLINE
 5
2B5
100
AcDbEntity
  8
16002
100
AcDbPolyline
 90
    2
 70
 0
 43
0.0
 10
1131.75
 20
124.95
 10
1131.75
 20
34.95
  0
LWPOLYLINE
 5
2B6
100
AcDbEntity
  8
16001
100
AcDbPolyline
 90
    2
 70
 0
 43
0.0
 10
1221.75
 20
124.95
 10
1221.75
 20
34.95
  0
MTEXT
 5
2B7
100
AcDbEntity
  8
17002
100
AcDbMText
 10
600.75
 20
57.45
 40
52.92
  1
35
 50
0.0
 71
8
  0
POINT
 5
2B8
100
AcDbEntity
  8
241000
100
AcDbPoint
 10
789.75
 20
79.95
 50
0.0
  0
POINT
 5
2B9
100
AcDbEntity
  8
508005
100
AcDbPoint
 10
1086.75
 20
79.95
 50
0.0
  0
LWPOLYLINE
 5
2BA
100
AcDbEntity
  8
16002
100
AcDbPolyline
 90
    2
 70
 0
 43
0.0
 10
456.75
 20
34.95
 10
1221.75
 20
34.95
  0
MTEXT
 5
2BB
100
AcDbEntity
  8
17001
100
AcDbMText
 10
501.75
 20
-32.55
 40
58.21
  1
3
 50
0.0
 71
8
  0
LWPOLYLINE
 5
2BC
100
AcDbEntity
  8
16001
100
AcDbPolyline
 90
    2
 70
 0
 43
0.0
 10
456.75
 20
34.95
 10
456.75
 20
-55.05
  0
LWPOLYLINE
 5
2BD
100
AcDbEntity
  8
16002
100
AcDbPolyline
 90
    2
 70
 0
 43
0.0
 10
546.75
 20
34.95
 10
546.75
 20
-55.05
  0
LWPOLYLINE
 5
2BE
100
AcDbEntity
  8
16002
100
AcDbPolyline
 90
    2
 70
 0
 43
0.0
 10
654.75
 20
34.95
 10
654.75
 20
-55.05
  0
LWPOLYLINE
 5
2BF
100
AcDbEntity
  8
16001
100
AcDbPolyline
 90
    2
 70
 0
 43
0.0
 10
744.75
 20
34.95
 10
744.75
 20
-55.05
  0
LWPOLYLINE
 5
2C0
100
AcDbEntity
  8
16002
100
AcDbPolyline
 90
    2
 70
 0
 43
0.0
 10
834.75
 20
34.95
 10
834.75
 20
-55.05
  0
LWPOLYLINE
 5
2C1
100
AcDbEntity
  8
16002
100
AcDbPolyline
 90
    2
 70
 0
 43
0.0
 10
924.75
 20
34.95
 10
924.75
 20
-55.05
  0
LWPOLYLINE
 5
2C2
100
AcDbEntity
  8
16001
100
AcDbPolyline
 90
    2
 70
 0
 43
0.0
 10
1041.75
 20
34.95
 10
1041.75
 20
-55.05
  0
LWPOLYLINE
 5
2C3
100
AcDbEntity
  8
16002
100
AcDbPolyline
 90
    2
 70
 0
 43
0.0
 10
1131.75
 20
34.95
 10
1131.75
 20
-55.05
  0
LWPOLYLINE
 5
2C4
100
AcDbEntity
  8
16001
100
AcDbPolyline
 90
    2
 70
 0
 43
0.0
 10
1221.75
 20
34.95
 10
1221.75
 20
-55.05
  0
MTEXT
 5
2C5
100
AcDbEntity
  8
17002
100
AcDbMText
 10
600.75
 20
-32.55
 40
52.92
  1
34
 50
0.0
 71
8
  0
POINT
 5
2C6
100
AcDbEntity
  8
219000
100
AcDbPoint
 10
789.75
 20
-10.05
 50
0.0
  0
POINT
 5
2C7
100
AcDbEntity
  8
511000
100
AcDbPoint
 10
1086.75
 20
-10.05
 50
0.0
  0
LWPOLYLINE
 5
2C8
100
AcDbEntity
  8
16001
100
AcDbPolyline
 90
    2
 70
 0
 43
0.0
 10
456.75
 20
-55.05
 10
1221.75
 20
-55.05
  0
MTEXT
 5
2C9
100
AcDbEntity
  8
17001
100
AcDbMText
 10
501.75
 20
-122.55
 40
58.21
  1
4
 50
0.0
 71
8
  0
LWPOLYLINE
 5
2CA
100
AcDbEntity
  8
16001
100
AcDbPolyline
 90
    2
 70
 0
 43
0.0
 10
456.75
 20
-55.05
 10
456.75
 20
-145.05
  0
LWPOLYLINE
 5
2CB
100
AcDbEntity
  8
16002
100
AcDbPolyline
 90
    2
 70
 0
 43
0.0
 10
546.75
 20
-55.05
 10
546.75
 20
-145.05
  0
LWPOLYLINE
 5
2CC
100
AcDbEntity
  8
16002
100
AcDbPolyline
 90
    2
 70
 0
 43
0.0
 10
654.75
 20
-55.05
 10
654.75
 20
-145.05
  0
LWPOLYLINE
 5
2CD
100
AcDbEntity
  8
16001
100
AcDbPolyline
 90
    2
 70
 0
 43
0.0
 10
744.75
 20
-55.05
 10
744.75
 20
-145.05
  0
LWPOLYLINE
 5
2CE
100
AcDbEntity
  8
16002
100
AcDbPolyline
 90
    2
 70
 0
 43
0.0
 10
834.75
 20
-55.05
 10
834.75
 20
-145.05
  0
LWPOLYLINE
 5
2CF
100
AcDbEntity
  8
16002
100
AcDbPolyline
 90
    2
 70
 0
 43
0.0
 10
924.75
 20
-55.05
 10
924.75
 20
-145.05
  0
LWPOLYLINE
 5
2D0
100
AcDbEntity
  8
16001
100
AcDbPolyline
 90
    2
 70
 0
 43
0.0
 10
1041.75
 20
-55.05
 10
1041.75
 20
-145.05
  0
LWPOLYLINE
 5
2D1
100
AcDbEntity
  8
16002
100
AcDbPolyline
 90
    2
 70
 0
 43
0.0
 10
1131.75
 20
-55.05
 10
1131.75
 20
-145.05
  0
LWPOLYLINE
 5
2D2
100
AcDbEntity
  8
16001
100
AcDbPolyline
 90
    2
 70
 0
 43
0.0
 10
1221.75
 20
-55.05
 10
1221.75
 20
-145.05
  0
MTEXT
 5
2D3
100
AcDbEntity
  8
17002
100
AcDbMText
 10
600.75
 20
-122.55
 40
52.92
  1
32
 50
0.0
 71
8
  0
POINT
 5
2D4
100
AcDbEntity
  8
216000
100
AcDbPoint
 10
789.75
 20
-100.05
 50
0.0
  0
POINT
 5
2D5
100
AcDbEntity
  8
508004
100
AcDbPoint
 10
1086.75
 20
-100.05
 50
0.0
  0
LWPOLYLINE
 5
2D6
100
AcDbEntity
  8
16002
100
AcDbPolyline
 90
    2
 70
 0
 43
0.0
 10
456.75
 20
-145.05
 10
1221.75
 20
-145.05
  0
MTEXT
 5
2D7
100
AcDbEntity
  8
17001
100
AcDbMText
 10
501.75
 20
-212.55
 40
58.21
  1
5
 50
0.0
 71
8
  0
LWPOLYLINE
 5
2D8
100
AcDbEntity
  8
16001
100
AcDbPolyline
 90
    2
 70
 0
 43
0.0
 10
456.75
 20
-145.05
 10
456.75
 20
-235.05
  0
LWPOLYLINE
 5
2D9
100
AcDbEntity
  8
16002
100
AcDbPolyline
 90
    2
 70
 0
 43
0.0
 10
546.75
 20
-145.05
 10
546.75
 20
-235.05
  0
LWPOLYLINE
 5
2DA
100
AcDbEntity
  8
16002
100
AcDbPolyline
 90
    2
 70
 0
 43
0.0
 10
654.75
 20
-145.05
 10
654.75
 20
-235.05
  0
LWPOLYLINE
 5
2DB
100
AcDbEntity
  8
16001
100
AcDbPolyline
 90
    2
 70
 0
 43
0.0
 10
744.75
 20
-145.05
 10
744.75
 20
-235.05
  0
LWPOLYLINE
 5
2DC
100
AcDbEntity
  8
16002
100
AcDbPolyline
 90
    2
 70
 0
 43
0.0
 10
834.75
 20
-145.05
 10
834.75
 20
-235.05
  0
LWPOLYLINE
 5
2DD
100
AcDbEntity
  8
16002
100
AcDbPolyline
 90
    2
 70
 0
 43
0.0
 10
924.75
 20
-145.05
 10
924.75
 20
-235.05
  0
LWPOLYLINE
 5
2DE
100
AcDbEntity
  8
16001
100
AcDbPolyline
 90
    2
 70
 0
 43
0.0
 10
1041.75
 20
-145.05
 10
1041.75
 20
-235.05
  0
LWPOLYLINE
 5
2DF
100
AcDbEntity
  8
16002
100
AcDbPolyline
 90
    2
 70
 0
 43
0.0
 10
1131.75
 20
-145.05
 10
1131.75
 20
-235.05
  0
LWPOLYLINE
 5
2E0
100
AcDbEntity
  8
16001
100
AcDbPolyline
 90
    2
 70
 0
 43
0.0
 10
1221.75
 20
-145.05
 10
1221.75
 20
-235.05
  0
MTEXT
 5
2E1
100
AcDbEntity
  8
17002
100
AcDbMText
 10
600.75
 20
-212.55
 40
52.92
  1
33
 50
0.0
 71
8
  0
POINT
 5
2E2
100
AcDbEntity
  8
260000
100
AcDbPoint
 10
789.75
 20
-190.05
 50
0.0
  0
POINT
 5
2E3
100
AcDbEntity
  8
501007
100
AcDbPoint
 10
1086.75
 20
-190.05
 50
0.0
  0
LWPOLYLINE
 5
2E4
100
AcDbEntity
  8
16002
100
AcDbPolyline
 90
    2
 70
 0
 43
0.0
 10
456.75
 20
-235.05
 10
1221.75
 20
-235.05
  0
MTEXT
 5
2E5
100
AcDbEntity
  8
17001
100
AcDbMText
 10
501.75
 20
-302.55
 40
58.21
  1
6
 50
0.0
 71
8
  0
LWPOLYLINE
 5
2E6
100
AcDbEntity
  8
16001
100
AcDbPolyline
 90
    2
 70
 0
 43
0.0
 10
456.75
 20
-235.05
 10
456.75
 20
-325.05
  0
LWPOLYLINE
 5
2E7
100
AcDbEntity
  8
16002
100
AcDbPolyline
 90
    2
 70
 0
 43
0.0
 10
546.75
 20
-235.05
 10
546.75
 20
-325.05
  0
LWPOLYLINE
 5
2E8
100
AcDbEntity
  8
16002
100
AcDbPolyline
 90
    2
 70
 0
 43
0.0
 10
654.75
 20
-235.05
 10
654.75
 20
-325.05
  0
LWPOLYLINE
 5
2E9
100
AcDbEntity
  8
16001
100
AcDbPolyline
 90
    2
 70
 0
 43
0.0
 10
744.75
 20
-235.05
 10
744.75
 20
-325.05
  0
LWPOLYLINE
 5
2EA
100
AcDbEntity
  8
16002
100
AcDbPolyline
 90
    2
 70
 0
 43
0.0
 10
834.75
 20
-235.05
 10
834.75
 20
-325.05
  0
LWPOLYLINE
 5
2EB
100
AcDbEntity
  8
16002
100
AcDbPolyline
 90
    2
 70
 0
 43
0.0
 10
924.75
 20
-235.05
 10
924.75
 20
-325.05
  0
LWPOLYLINE
 5
2EC
100
AcDbEntity
  8
16001
100
AcDbPolyline
 90
    2
 70
 0
 43
0.0
 10
1041.75
 20
-235.05
 10
1041.75
 20
-325.05
  0
LWPOLYLINE
 5
2ED
100
AcDbEntity
  8
16002
100
AcDbPolyline
 90
    2
 70
 0
 43
0.0
 10
1131.75
 20
-235.05
 10
1131.75
 20
-325.05
  0
LWPOLYLINE
 5
2EE
100
AcDbEntity
  8
16001
100
AcDbPolyline
 90
    2
 70
 0
 43
0.0
 10
1221.75
 20
-235.05
 10
1221.75
 20
-325.05
  0
MTEXT
 5
2EF
100
AcDbEntity
  8
17002
100
AcDbMText
 10
600.75
 20
-302.55
 40
52.92
  1
36
 50
0.0
 71
8
  0
POINT
 5
2F0
100
AcDbEntity
  8
202000
100
AcDbPoint
 10
789.75
 20
-280.05
 50
0.0
  0
POINT
 5
2F1
100
AcDbEntity
  8
505005
100
AcDbPoint
 10
1086.75
 20
-280.05
 50
0.0
  0
POINT
 5
2F2
100
AcDbEntity
  8
602000
100
AcDbPoint
 10
1176.75
 20
-280.05
 50
0.0
  0
LWPOLYLINE
 5
2F3
100
AcDbEntity
  8
16001
100
AcDbPolyline
 90
    2
 70
 0
 43
0.0
 10
456.75
 20
-325.05
 10
1221.75
 20
-325.05
  0
LWPOLYLINE
 5
2F4
100
AcDbEntity
  8
16001
100
AcDbPolyline
 90
    2
 70
 0
 43
0.0
 10
456.75
 20
-325.05
 10
456.75
 20
-415.05
  0
LWPOLYLINE
 5
2F5
100
AcDbEntity
  8
16001
100
AcDbPolyline
 90
    2
 70
 0
 43
0.0
 10
1221.75
 20
-325.05
 10
1221.75
 20
-415.05
  0
POINT
 5
2F6
100
AcDbEntity
  8
15002
100
AcDbPoint
 10
501.75
 20
-370.05
 50
0.0
  0
POINT
 5
2F7
100
AcDbEntity
  8
14003
100
AcDbPoint
 10
555.75
 20
-370.05
 50
0.0
  0
POINT
 5
2F8
100
AcDbEntity
  8
15004
100
AcDbPoint
 10
1122.75
 20
-370.05
 50
0.0
  0
POINT
 5
2F9
100
AcDbEntity
  8
15003
100
AcDbPoint
 10
1176.75
 20
-370.05
 50
0.0
  0
MTEXT
 5
2FA
100
AcDbEntity
  8
17004
100
AcDbMText
 10
834.75
 20
-392.55
 40
52.92
  1
220 m
 50
0.0
 71
8
  0
LWPOLYLINE
 5
2FB
100
AcDbEntity
  8
16001
100
AcDbPolyline
 90
    2
 70
 0
 43
0.0
 10
456.75
 20
-415.05
 10
1221.75
 20
-415.05
  0
ENDSEC
  0
SECTION
  2
OBJECTS
  0
DICTIONARY
  5
 13
330
0
100
AcDbDictionary
281
     1
  3
ACAD_GROUP
350
 14
 3
ACAD_MLINESTYLE
350
 16
  3
ACAD_PLOTSETTINGS
350
 17
  3
ACAD_PLOTSTYLENAME
350
 18
  0
DICTIONARY
  5
 14
330
 13
100
AcDbDictionary
281
     1
  0
DICTIONARY
  5
 16
330
 13
100
AcDbDictionary
281
     1
  0
DICTIONARY
  5
 17
102
{ACAD_REACTORS
330
 13
102
}
330
 13
100
AcDbDictionary
281
     1
  0
ACDBDICTIONARYWDFLT
  5
 18
102
{ACAD_REACTORS
330
 13
102
}
330
 13
100
AcDbDictionary
281
     1
  3
Normal
350
 19
100
AcDbDictionaryWithDefault
340
 19
  0
ACDBPLACEHOLDER
  5
 19
102
{ACAD_REACTORS
330
 18
102
}
330
 18
  0
ENDSEC
  0
EOF
